» » »

Attack Attack, Too Bad Son Tabs (ver.1)

Artists:  A B C D E F G H I J K L M N O P Q R S T U V W X Y Z # 

Too Bad Son Tabs (ver.1)

Attack Attack Tabs
 Rating:
4/5 (4 votes)
Too Bad Son lessons Tabs too difficult? Try these video lessons and learn fast
                Intro/First verse

e|------------------------------------------------|
B|------------------------------------------------|
G|------------------------------------------------|
D|-9--12--5--9--5--9--5--7--12--5--*--------------|
A|-9--12--5--9--5--9--5--7--12--5--*--------------|
D|-9--12--5--9--5--9--5--7--12--5--*--------------|

   Do this chord progression twice palm muted,
   couldn't be asked to do the ryhthm myself so
   its not too hard to work out :)

Chorus

e|-------------------------------------------------|
B|-------------------------------------------------|
G|-7-----4-----------------------------------------|
D|-7--5--4--5--------------------------------------|
A|-5--5--2--5--------------------------------------|
D|----5-----5--------------------------------------|

Again this is the chord progression,
Rhythm isn't hard to figure :)

Pre-verse

The rhythm guitar was hard to hear here, but i don't think this sounds
too bad along with the lead.

e|---------------------------------------------------|
B|---------------------------------------------------|
G|---------------------------------------------------|
D|-9--5--9--5--*-------------------------------------|
A|-9--5--9--5--*-------------------------------------|
D|-9--5--9--5--*-------------------------------------|

Then the lead along with the rhythm guitar.

e|------------------------------------------------------------------------|
B|------------------------------------------------------------------------|
G|------------------------------------------------------------------------|
D|-------------7-7-7-4-4-4-2-2-4-4----------------------------------*-----|
A|-2-2-2-5-5-5---------------------5-5-5-5-5-5-5-5------------------*-----|
D|-------------------------------------------------5-5-5-5-5-5-5-5--*-----|

e|---------------------------------------------------10-10-10-17-------------|
B|----------------------------------------------------10-10-10---------------|
G|---------------------------------------------------------------------------|
D|-------------7-7-7-4-4-4-2-2-4-4------------------*------------------------|
A|-2-2-2-5-5-5---------------------5-5-5-5-5-5-5-5--*------------------------|
D|---------------------------------------------------------------------------|

Verse 2

e|----------------------------------------------------------------|
B|----------------------------------------------------------------|
G|----------------------------------------------------------------|
D|-9--12--5--9--5--9--5--7--12--5--*------------------------------|
A|-9--12--5--9--5--9--5--7--12--5--*------------------------------|
D|-9--12--5--9--5--9--5--7--12--5--*------------------------------|

Repeat this twice work out the rhythm again.

Chorus 2

e|-----------------------------------------------------------|
B|-----------------------------------------------------------|
G|-7-----4--2--5-----2---------------------------------------|
D|-7--5--4--2--5--5--2--5------------------------------------|
A|-5--5--2--0--7--5--4--5------------------------------------|
D|----5-----------5-----5------------------------------------|

Work out rhythm :)

Pre-Bridge

e|-------------------------------------------------------|
B|-------------------------------------------------------|
G|-2--4-----2--4--7-----2--4-----7--9--12--11------------|
D|-2--4--5--2--4--7--5--2--4--5--7--9--12--11------------|
A|-0--2--5--0--2--5--5--0--2--5--5--7--10--9-------------|
D|-------5-----------5--------5--------------------------|

Something like that? :S

Bridge

e|-----------------------------------------------------------------|
B|-----------------------------------------------------------------|
G|-----------------------------------------------------------------|
D|-0--5--2--*-----0--5--9--7--0--5--9--5---------------------------|
A|-0--5--2--*-----0--5--9--7--0--5--9--5---------------------------|
D|-0--5--2--*-x4--0--5--9--7--0--5--9--5---------------------------|

Work out the Rhythm again :)

Last chorus!

e|------------------------------------------------------------|
B|------------------------------------------------------------|
G|-7-----4--0--7-----4----------------------------------------|
D|-7--5--4--0--7--5--4--5--0----------------------------------|
A|-5--5--2--2--5--5--2--5--0----------------------------------|
D|----5-----------5-----5--0----------------------------------|

Thats roughly it I suppose! Have fun Alex!
            
Submit corrections

comments powered by Disqus
↑ Back to top | Attack Attack Tabs for Too Bad Son. Lyrics for acoustic guitar and electric guitar. Tablatures and chords are parodies/interpretations of the original songs. You may use it for private study, scholarship, research or language learning purposes only