» » »

Attack Attack, The Wretched Tabs (ver.2)

Artists:  A B C D E F G H I J K L M N O P Q R S T U V W X Y Z # 

The Wretched Tabs (ver.2)

Attack Attack Tabs
 Rating:
4/5 (4 votes)
The Wretched lessons Tabs too difficult? Try these video lessons and learn fast
1
                                      Attack Attack!
                                 The Wretched
                                       This Means War



Tuning: Drop Db/C# (C#,Ab,Db,Gb,Bb,Eb)


I know on this album they changed over to 7-string guitars but i figured it out in this tuning, so here you go.


Intro: 


Eb|-----------------------------------------------|
Bb|-------7-7--7------7-7--7------5-5--5-----9-9-9|
Gb|---4-4-----4---7-7-----7---------------9-9---9-| x4
Db|---------------------------7-7----7------------|
Ab|-----------------------------------------------|
Db|-----------------------------------------------|


Pre-Verse:


|----------------------------------------------------|
|----------------------------------------------------|
|-----------222-222-----------444-444----------------|
|--444-444--222-222--222-222--444-444----------------|  x2
|--444-444--000-000--222-222--222-222----------------|
|--444-444-----------222-222--444-444----------------|



Verse:  (There's Somebody Else,Inside My Head!!)

|-------------------------------------|
|-------------------------------------|
|-------------------------------------|  Play Down By The Bridge Hard.
|-------------------------------------|            x2
|-------------------------------------|  
|-44444444-77777777-22222222-00000000-|


Pre-Chorus:
 same as Pre-Verse

Last Time Let---> Gb|6|
This Ring Out---> Db|4|
                  Ab|4|  "I need you now"
                  Db|4|
 

Chorus:"This Time Is Not My Perspective."
|----------------------------------------------------|
|----------------------------------------------------|
|-----------222-222-----------444-444----------------|
|--444-444--222-222--222-222--444-444----------------|  x2
|--444-444--000-000--222-222--222-222----------------|
|--444-444-----------222-222--444-444----------------|

Verse 2:"Let's Face The Fact Shall We!"

|-------------------------------------|
|-------------------------------------|
|-------------------------------------|  Play Down By The Bridge Hard.
|-------------------------------------|            x2
|-------------------------------------|  
|-44444444-77777777-22222222-00000000-|

Pre-Chorus:

|----------------------------------------------------|
|----------------------------------------------------|
|-----------222-222-----------444-444----------------|
|--444-444--222-222--222-222--444-444----------------|  x2
|--444-444--000-000--222-222--222-222----------------|
|--444-444-----------222-222--444-444----------------|

Last Time Let---> Gb|6|
This Ring Out---> Db|4|
                  Ab|4|  "I need you now"
                  Db|4|

Chorus 2:"This Time Is Not My Perspective."
|----------------------------------------------------|
|----------------------------------------------------|
|-----------222-222-----------444-444----------------|
|--444-444--222-222--222-222--444-444----------------|  x4
|--444-444--000-000--222-222--222-222----------------|
|--444-444-----------222-222--444-444----------------|

Break Down!: "I PUT IT ALL ON THE LINE FOR YOU!!!"
Part 1
|----------------------------------------------------|
|----------------------------------------------------|
|----------------------------------------------------|   x2
|-444-44---4--4--44--444---4--4--44------------------|     2nd time us a Wah
|-444-44---4--4--44--444---4--4--44------------------|     Pedal To Get the
|-444-44---4--4--44--444---4--4--44------------------|     Lower Effect.



|----------------------------------------------------|
|----------------------------------------------------|
|----------------------------------------------------|   x4
|-444-44---4--4--44--444---4--4--44454445------------|     
|-444-44---4--4--44--444---4--4--44--44--------------|     
|-444-44---4--4--44--444---4--4--44--44--------------|     


Part2
Db|--4444-4444-44-|
Ab|--4444-4444-44-|
Db|--4444-4444-44-|

Intro: x4

Chorus: x4
Chorus: x2    Follow Kick Drum Beat.


There You Go.
            
Submit corrections

comments powered by Disqus
↑ Back to top | Attack Attack Tabs for The Wretched. Lyrics for acoustic guitar and electric guitar. 1 Tablatures and chords are parodies/interpretations of the original songs. You may use it for private study, scholarship, research or language learning purposes only