» » »

Attack Attack, The Betrayal Tabs (ver.1)

Artists:  A B C D E F G H I J K L M N O P Q R S T U V W X Y Z # 

The Betrayal Tabs (ver.1)

Attack Attack Tabs
 Rating:
4/5 (4 votes)
The Betrayal lessons Tabs too difficult? Try these video lessons and learn fast
                                                Attack Attack!         

                                 The Betrayal  
                                This Means War  

Tuning: Drop G (GDGCEA)                             Tab by: Rock_Guitarhero
           
                           Andrew Whiting - Lead Guitar



     S S S S S S S  E  E  S S S S S  
A||---------------------------------|
E||---------------------------------|
C||---------------------------------|
G||---------------------------------|
D||---------------------------------|
G||--0-0---0---0-0-12--0--0-0-0-0-0-|


  S S S S S S S  E   E  S Q     
-------------------------------|
-------------------------------|
-------------------------------|
-------------------------------|
----------------/9-------------|
--0-0---0---0-0-----13--0------|


  S S S S S S S  E  E  S S S S S  
---------------------------------|
---------------------------------|
---------------------------------|
---------------------------------|
---------------------------------|
--0-0---0---0-0-12--0--0-0-0-0-0-|


  S S S S S S S  E   E  S S S S S  
----------------------------------|
----------------------------------|
----------------------------------|
----------------------------------|
----------------/9----------------|
--0-0---0---0-0-----13--0-0-0-0-0-|


  S S S S S S S  E  E  S S S S S  
---------------------------------|
---------------------------------|
---------------------------------|
---------------------------------|
---------------------------------|
--0-0---0---0-0-12--0--0-0-0-0-0-|


  S S S S S S S  E   E  S S S S S  
----------------------------------|
----------------------------------|
----------------------------------|
----------------------------------|
----------------/9----------------|
--0-0---0---0-0-----13--0-0-0-0-0-|


  S S S S S S S  E  E  S S S S S  
---------------------------------|
---------------------------------|
---------------------------------|
---------------------------------|
---------------------------------|
--0-0---0---0-0-12--0--0-0-0-0-0-|


  S S S S S S S  E   E  S S S S S  
----------------------------------|
----------------------------------|
----------------------------------|
----------------------------------|
----------------/9----------------|
--0-0---0---0-0-----13--0-0-0-0-0-|


  S S S S S S S  E  E  S S S S S  
---------------------------------|
---------------------------------|
---------------------------------|
---------------------------------|
---------------------------------|
--0-0---0---0-0-12--0--0-0-0-0-0-|


  S S S S S S S  E   E  S S S S S  
----------------------------------|
----------------------------------|
----------------------------------|
----------------------------------|
----------------/9----------------|
--0-0---0---0-0-----13--0-0-0-0-0-|


  S S S S S S S S S S S S S S S S  
----------------------------------|
----------------------------------|
--7-7-7-7-7-7-7-7-7-7-7-7-7-7-7-7-|
----------------------------------|
--5-5-5-5-5-5-5-5-5-5-5-5-5-5-5-5-|
----------------------------------|


  S S S S S S S S S S S S S S S S  
----------------------------------|
----------------------------------|
--7-7-7-7-7-7-7-7-7-7-7-7-7-7-7-7-|
----------------------------------|
--5-5-5-5-5-5-5-5-5-5-5-5-5-5-5-5-|
----------------------------------|


  S S S S S S S S S S S S S S S S  
----------------------------------|
----------------------------------|
--7-7-7-7-7-7-7-7-7-7-7-7-7-7-7-7-|
----------------------------------|
--5-5-5-5-5-5-5-5-5-5-5-5-5-5-5-5-|
----------------------------------|


  S E  E  E  S S E  E  E  S  
----------------------------|
----------------------------|
----------------------------|
----------------------------|
----------------------------|
--3-3--3--3--3-8-8--8--8--8-|


   S  S  S  S  S  S  S  S  S  S  S  S  S
----------------------------------------
--10-10-10-10-10-10-10-10-10-10-10-10-10
----------------------------------------
---7--7--7--7--7--7--7--7--7--7--7--7--7
----------------------------------------
----------------------------------------


  S S S S S S S S  S  S  S  S  S  S  S  
----------------------------------------
----------------------------------------
--9-9-9-9-9-9-9-9-10-10-10-10-10-10-10-1
----------------------------------------
--7-7-7-7-7-7-7-7--8--8--8--8--8--8--8--
----------------------------------------


  S S S S S S S S S S S S S S S S  
----------------------------------|
----------------------------------|
--3-3-3-3-3-3-3-3-3-3-3-3-3-3-3-3-|
----------------------------------|
--1-1-1-1-1-1-1-1-1-1-1-1-1-1-1-1-|
----------------------------------|


  S E  E  E  S S E  E  E  S  
----------------------------|
----------------------------|
----------------------------|
----------------------------|
----------------------------|
--3-3--3--3--3-8-8--8--8--8-|


  S S S S S S S S S S S S S S S S  
----------------------------------|
----------------------------------|
--7-7-7-7-7-7-7-7-7-7-7-7-7-7-7-7-|
--7-7-7-7-7-7-7-7-7-7-7-7-7-7-7-7-|
--5-5-5-5-5-5-5-5-5-5-5-5-5-5-5-5-|
----------------------------------|


  S S S S S S S S S S S S S S S S  
----------------------------------|
----------------------------------|
--5-5-5-5-5-5-5-5-----------------|
--5-5-5-5-5-5-5-5-5-5-5-5-5-5-5-5-|
--3-3-3-3-3-3-3-3-5-5-5-5-5-5-5-5-|
------------------5-5-5-5-5-5-5-5-|


  S S S S S S S S S S S S S S S S  
----------------------------------|
----------------------------------|
--7-7-7-7-7-7-7-7-7-7-7-7-7-7-7-7-|
--7-7-7-7-7-7-7-7-7-7-7-7-7-7-7-7-|
--5-5-5-5-5-5-5-5-5-5-5-5-5-5-5-5-|
----------------------------------|


  S S S S S S S S S S S S S S S S  
----------------------------------|
----------------------------------|
--5-5-5-5-5-5-5-5-----------------|
--5-5-5-5-5-5-5-5-5-5-5-5-5-5-5-5-|
--3-3-3-3-3-3-3-3-5-5-5-5-5-5-5-5-|
------------------5-5-5-5-5-5-5-5-|


  S S S S S S S S S S S S S S S S  
----------------------------------|
----------------------------------|
--7-7-7-7-7-7-7-7-7-7-7-7-7-7-7-7-|
--7-7-7-7-7-7-7-7-7-7-7-7-7-7-7-7-|
--5-5-5-5-5-5-5-5-5-5-5-5-5-5-5-5-|
----------------------------------|


   S  S  S  S  S  S  S  S S S S S S S S 
----------------------------------------
----------------------------------------
--10-10-10-10-10-10-10-10---------------
--10-10-10-10-10-10-10-10-8-8-8-8-8-8-8-
---8--8--8--8--8--8--8--8-8-8-8-8-8-8-8-
--------------------------8-8-8-8-8-8-8-


  S S S S S S S S S S S S S S S S  
----------------------------------|
----------------------------------|
--7-7-7-7-7-7-7-7-7-7-7-7-7-7-7-7-|
--7-7-7-7-7-7-7-7-7-7-7-7-7-7-7-7-|
--5-5-5-5-5-5-5-5-5-5-5-5-5-5-5-5-|
----------------------------------|


  S S S S S S S S S S S S S S S S  
----------------------------------|
----------------------------------|
--5-5-5-5-5-5-5-5-----------------|
--5-5-5-5-5-5-5-5-5-5-5-5-5-5-5-5-|
--3-3-3-3-3-3-3-3-5-5-5-5-5-5-5-5-|
------------------5-5-5-5-5-5-5-5-|


  S S S S S S S S S S S S S S S S  
----------------------------------|
----------------------------------|
--7-7-7-7-7-7-7-7-7-7-7-7-7-7-7-7-|
--7-7-7-7-7-7-7-7-7-7-7-7-7-7-7-7-|
--5-5-5-5-5-5-5-5-5-5-5-5-5-5-5-5-|
----------------------------------|


   S  S  S  S  S  S  S  S S S S S S S S 
----------------------------------------
----------------------------------------
--10-10-10-10-10-10-10-10---------------
--10-10-10-10-10-10-10-10-8-8-8-8-8-8-8-
---8--8--8--8--8--8--8--8-8-8-8-8-8-8-8-
--------------------------8-8-8-8-8-8-8-


  W                 
-------------------|
-------------------|
-------------------|
-------------------|
-------------------|
-------------------|


  S S S S S S S  E  E  S S S S S  
---------------------------------|
---------------------------------|
---------------------------------|
---------------------------------|
---------------------------------|
--0-0---0---0-0-12--0--0-0-0-0-0-|


  S S S S S S S  E   E  S S S S S  
----------------------------------|
----------------------------------|
----------------------------------|
----------------------------------|
----------------/9----------------|
--0-0---0---0-0-----13--0-0-0-0-0-|


  S S S S S S S  E  E  S S S S S  
---------------------------------|
---------------------------------|
---------------------------------|
---------------------------------|
---------------------------------|
--0-0---0---0-0-12--0--0-0-0-0-0-|


  S S S S S S S  E   E  S S S S S  
----------------------------------|
----------------------------------|
----------------------------------|
----------------------------------|
----------------/9----------------|
--0-0---0---0-0-----13--0-0-0-0-0-|


  W                   W                 
-------------------|-------------------|
-------------------|-------------------|
-------------------|-------------------|
-------------------|-------------------|
-------------------|-------------------|
-------------------|-------------------|


  W                   W                 
-------------------|-------------------|
-------------------|-------------------|
-------------------|-------------------|
-------------------|-------------------|
-------------------|-------------------|
-------------------|-------------------|


   S  E   S  S  S  S  S  S  E   S  S  S 
----------------------------------------
--10-10--10-10-10-10-10-10-10--10-10-10-
----------------------------------------
---7--7---7--7--7--7--7--7--7---7--7--7-
----------------------------------------
----------------------------------------


  S E  S S S S S  S  E   S  S  S  S  S  
---------------------------------------|
---------------------------------------|
--9-9--9-9-9-9-9-10-10--10-10-10-10-10-|
---------------------------------------|
--7-7--7-7-7-7-7--8--8---8--8--8--8--8-|
---------------------------------------|


  S E  S S S S S S E  S S S S S  
--------------------------------|
--------------------------------|
--3-3--3-3-3-3-3-3-3--3-3-3-3-3-|
--------------------------------|
--1-1--1-1-1-1-1-1-1--1-1-1-1-1-|
--------------------------------|


  S E  E  E  S S E  E  E  S  
----------------------------|
----------------------------|
----------------------------|
----------------------------|
----------------------------|
--3-3--3--3--3-8-8--8--8--8-|


  W                 
-------------------|
-------------------|
--7----------------|
-------------------|
--5----------------|
-------------------|


  H        H         
--------------------|
--------------------|
--7--------7--------|
--------------------|
--5--------5--------|
--------------------|


  W                 
-------------------|
-------------------|
--7----------------|
-------------------|
--5----------------|
-------------------|


  H        H         
--------------------|
--------------------|
--7--------7--------|
--------------------|
--5--------5--------|
--------------------|


  W                 
-------------------|
-------------------|
--7----------------|
-------------------|
--5----------------|
-------------------|


  H        H         
--------------------|
--------------------|
--7--------7--------|
--------------------|
--5--------5--------|
--------------------|


  W                 
-------------------|
-------------------|
--7----------------|
-------------------|
--5----------------|
-------------------|


                <     
  H        Q    Q     
---------------------|
---------------------|
--7--------7----7----|
---------------------|
--5--------5----5----|
---------------------|


  S S S S S S S S S S S S S S S S  
----------------------------------|
----------------------------------|
--7-7-7-7-7-7-7-7-7-7-7-7-7-7-7-7-|
--7-7-7-7-7-7-7-7-7-7-7-7-7-7-7-7-|
--5-5-5-5-5-5-5-5-5-5-5-5-5-5-5-5-|
----------------------------------|


  S S S S S S S S S S S S S S S S  
----------------------------------|
----------------------------------|
--5-5-5-5-5-5-5-5-----------------|
--5-5-5-5-5-5-5-5-5-5-5-5-5-5-5-5-|
--3-3-3-3-3-3-3-3-5-5-5-5-5-5-5-5-|
------------------5-5-5-5-5-5-5-5-|


  S S S S S S S S S S S S S S S S  
----------------------------------|
----------------------------------|
--7-7-7-7-7-7-7-7-7-7-7-7-7-7-7-7-|
--7-7-7-7-7-7-7-7-7-7-7-7-7-7-7-7-|
--5-5-5-5-5-5-5-5-5-5-5-5-5-5-5-5-|
----------------------------------|


   S  S  S  S  S  S  S  S S S S S S S S 
----------------------------------------
----------------------------------------
--10-10-10-10-10-10-10-10---------------
--10-10-10-10-10-10-10-10-8-8-8-8-8-8-8-
---8--8--8--8--8--8--8--8-8-8-8-8-8-8-8-
--------------------------8-8-8-8-8-8-8-


  S S S S S S S S S S S S S S S S  
----------------------------------|
----------------------------------|
--7-7-7-7-7-7-7-7-7-7-7-7-7-7-7-7-|
--7-7-7-7-7-7-7-7-7-7-7-7-7-7-7-7-|
--5-5-5-5-5-5-5-5-5-5-5-5-5-5-5-5-|
----------------------------------|


  S S S S S S S S S S S S S S S S  
----------------------------------|
----------------------------------|
--5-5-5-5-5-5-5-5-----------------|
--5-5-5-5-5-5-5-5-5-5-5-5-5-5-5-5-|
--3-3-3-3-3-3-3-3-5-5-5-5-5-5-5-5-|
------------------5-5-5-5-5-5-5-5-|


  S S S S S S S S S S S S S S S S  
----------------------------------|
----------------------------------|
--7-7-7-7-7-7-7-7-7-7-7-7-7-7-7-7-|
--7-7-7-7-7-7-7-7-7-7-7-7-7-7-7-7-|
--5-5-5-5-5-5-5-5-5-5-5-5-5-5-5-5-|
----------------------------------|


   S  S  S  S  S  S  S  S S S S S S S S 
----------------------------------------
----------------------------------------
--10-10-10-10-10-10-10-10---------------
--10-10-10-10-10-10-10-10-8-8-8-8-8-8-8-
---8--8--8--8--8--8--8--8-8-8-8-8-8-8-8-
--------------------------8-8-8-8-8-8-8-


  S S E  S S E  S S Q.      
---------------------------|
---------------------------|
---------------------------|
---------------------------|
---------------------------|
--0-0----0-0----0-0--------|


  W                 
-------------------|
-------------------|
-------------------|
-------------------|
-------------------|
-------------------|


  S S E  S S E  S S Q.      
---------------------------|
---------------------------|
---------------------------|
---------------------------|
---------------------------|
--0-0----0-0----0-0--------|


  W                 
-------------------|
-------------------|
-------------------|
-------------------|
-------------------|
-------------------|


  S S E  S S E  S S Q.      
---------------------------|
---------------------------|
---------------------------|
--0-0----0-0----0-0--------|
--0-0----0-0----0-0--------|
--0-0----0-0----0-0--------|


  W                 
-------------------|
-------------------|
-------------------|
-------------------|
-------------------|
-------------------|


  S S E  S S E  S S E  S S E   
------------------------------|
------------------------------|
------------------------------|
--0-0----0-0----0-0----0-0----|
--0-0----0-0----0-0----0-0----|
--0-0----0-0----0-0----0-0----|


  S S E  S S E  S S S S S S S S  
--------------------------------|
--------------------------------|
--------------------------------|
--0-0----0-0--------------------|
--0-0----0-0--------------------|
--0-0----0-0----0-0-0-0-0-0-0-0-|


  W                 
-------------------|
-------------------|
-------------------|
-------------------|
-------------------|
-------------------|


  S S E  S S E  S S E  S S S S  
-------------------------------|
-------------------------------|
-------------------------------|
--0-0----0-0----0-0----0-0-0-0-|
--0-0----0-0----0-0----0-0-0-0-|
--0-0----0-0----0-0----0-0-0-0-|


  S S E  S S S E   E   E   E   S   
----------------------------------|
----------------------------------|
----------------------------------|
--0-0----0-0-0--------------------|
--0-0----0-0-0--------------------|
--0-0----0-0-0-1b--1b--1b--1b--1b-|


  S S E  S S E  S S E  S S S S  
-------------------------------|
-------------------------------|
-------------------------------|
--0-0----0-0----0-0----0-0-0-0-|
--0-0----0-0----0-0----0-0-0-0-|
--0-0----0-0----0-0----0-0-0-0-|


  S S E  S S S E   E    E  E  S  
--------------------------------|
--------------------------------|
--------------------------------|
--0-0----0-0-0------------------|
--0-0----0-0-0------------------|
--0-0----0-0-0-1b--1b--12--0--0-|


  S S E  S S E  S S E  S S S S  
-------------------------------|
-------------------------------|
-------------------------------|
--0-0----0-0----0-0----0-0-0-0-|
--0-0----0-0----0-0----0-0-0-0-|
--0-0----0-0----0-0----0-0-0-0-|


  S S E  S S S E   E   E   E   S   
----------------------------------|
----------------------------------|
----------------------------------|
--0-0----0-0-0--------------------|
--0-0----0-0-0--------------------|
--0-0----0-0-0-1b--1b--1b--1b--1b-|


  S S E  S S E  S S E  S S S S  
-------------------------------|
-------------------------------|
-------------------------------|
--0-0----0-0----0-0----0-0-0-0-|
--0-0----0-0----0-0----0-0-0-0-|
--0-0----0-0----0-0----0-0-0-0-|


  S S E  S S S E   E    E  E  S  
--------------------------------|
--------------------------------|
--------------------------------|
--0-0----0-0-0------------------|
--0-0----0-0-0------------------|
--0-0----0-0-0-1b--1b--12--0--0-|


  S S S S S S S  E  E  S S S S S  
---------------------------------|
---------------------------------|
---------------------------------|
---------------------------------|
---------------------------------|
--0-0---0---0-0-12--0--0-0-0-0-0-|


  S S S S S S S  E   E  S S S S S  
----------------------------------|
----------------------------------|
----------------------------------|
----------------------------------|
----------------/9----------------|
--0-0---0---0-0-----13--0-0-0-0-0-|


  S S S S S S S  E  E  S S S S S  
---------------------------------|
---------------------------------|
---------------------------------|
---------------------------------|
---------------------------------|
--0-0---0---0-0-12--0--0-0-0-0-0-|


  S S S S S S S  E   E  S S S S S  
----------------------------------|
----------------------------------|
----------------------------------|
----------------------------------|
----------------/9----------------|
--0-0---0---0-0-----13--0-0-0-0-0-|


  S S S S S S S  E  E  S S S S S  
---------------------------------|
---------------------------------|
---------------------------------|
---------------------------------|
---------------------------------|
--0-0---0---0-0-12--0--0-0-0-0-0-|


  S S S S S S S  E   E  S S S S S  
----------------------------------|
----------------------------------|
----------------------------------|
----------------------------------|
----------------/9----------------|
--0-0---0---0-0-----13--0-0-0-0-0-|


  S S S S S S S  E  E  S S S S S  
---------------------------------|
---------------------------------|
---------------------------------|
---------------------------------|
---------------------------------|
--0-0---0---0-0-12--0--0-0-0-0-0-|


  S S S S S S S  E   E  S S S S S   
----------------------------------||
----------------------------------||
----------------------------------||
----------------------------------||
----------------/9----------------||
--0-0---0---0-0-----13--0-0-0-0-0-||




Duration Legend
---------------
W - whole
H - half
Q - quarter
E - 8th
S - 16th
T - 32nd
X - 64th
. - note dotted
|-n-|  - n-tuplets


Tablature Legend
----------------
L - tied note
x - dead note
g - grace note
(n) - ghost note
> - accentuded note
NH - natural harmonic
AH - artificial harmonic
TH - tapped harmonic
SH - semi harmonic
PH - pitch harmonic
h - hammer on
p - pull off
b - bend
br - bendRelease
pb - preBend
pbr - preBendRelease
brb - bendReleaseBend
\n/ - tremolo bar dip
\n - tremolo bar dive
-/n - tremolo bar Release up
/n\ - tremolo bar inverted dip
/n - tremolo bar return
-\n - tremolo bar Release down
S - shift slide
s - legato slide
/ -  slide into from below or out of upwards
\ -  slide into from above or out of downwards
~ - vibrato
W - wide vibrato
tr - trill
TP - tremolo picking
T - tapping
S - slap
P - pop
< - fade in
^ - brush up
v - brush down
            
Submit corrections

comments powered by Disqus
↑ Back to top | Attack Attack Tabs for The Betrayal. Lyrics for acoustic guitar and electric guitar. Tablatures and chords are parodies/interpretations of the original songs. You may use it for private study, scholarship, research or language learning purposes only