» » »

Stick Stickly Bass tabs (ver.2)

Artists:  A B C D E F G H I J K L M N O P Q R S T U V W X Y Z # 

Stick Stickly Bass tabs (ver.2)

Attack Attack
Rating:
0/5 (0 votes)

Tabs too difficult? Try these video lessons and learn fast.
                
Well Here's my first tab ever so i know it's not 100%, but at least it can help. This a 
song and you can use a pick or not, you can also use different slide techniques 
the song. If you spot anything wrong please feel free to comment.
Well Enjoy :)

Intro (0:00 -0:30)

F#|---------------------------------------------------------------------|
C#|---------------------------------------------------------------------|
G#|---------------------------------------------------------------------|
C#|----000-000---0-00-----0-00--000-000-----X8---0--last time let ring--|

Chorus (0:33 – 0:53)

F#|----------------------------------------------------------------|
C#|----------------------------------------------------------------|
G#|----------------------------------------------------------------|
C#|---8—--88----888----888----888-\-7-77--777-/-10-1010--101010/---|

F#|-----------------------------------------------|
C#|-----------------------------------------------|
G#|-----------------------------------------------|
C#|---12---1212----121212----121212----121212-----|

F#|------------------------------------|
C#|------------------------------------|
G#|------------------------------------|
C#|---10---10-10----1010101010---------|

Verse (0:53 – 1:03)

F#|---------------------|
C#|---------------------|
G#|---------------------|
C#|---0-0----0-0----X8--|

Bridge (1:06 – 1:07)

F#|---------------------|
C#|---------------------|
G#|---------------------|
C#|-8--x16----10—x16----|

Breakdown (1:08 – 1:35)

F#|------------------------------------------------------------|
C#|------------------------------------------------------------|
G#|------------------------------------------------------------|
C#|--000--0--000--0----00000000----000----0----000---0---0000-0|

F#|----------------------------------------------------------------|
C#|-----------------Faster--Tempo----------------------------------|
G#|----------------------------------------------------------------|
C#|--000--000--000--000--00000000----000--000--000--000--000--12\--|

F#|------------------------------------------------------------|
C#|------------------------------------------------------------|
G#|------------------------------------------------------------|
C#|--000--0--000--0----00000000----000----0----000---0---0000-0|

F#|--------------------------------------------------------------|
C#|-----------------Faster--Tempo--------------------------------|
G#|--------------------------------------------------------------|
C#|--000--000--000--000--00000000----000--000--000--000--000--0--|

Pre-Chorus (1:38 – 1:58)

F#|------------------------------------------|
C#|------------------------------------------|
G#|------------------------------------------|
C#|---8—-x8--7—-x4---10—-x4--12—-x8--10—x8---|

Chorus (1:58 – 2:17)

F#|----------------------------------------------------------------|
C#|----------------------------------------------------------------|
G#|----------------------------------------------------------------|
C#|---8—--88----888----888----888-\-7-77--777-/-10-1010--101010/---|

F#|-----------------------------------------------|
C#|-----------------------------------------------|
G#|-----------------------------------------------|
C#|---12---1212----121212----121212----121212-----|

F#|--------------------------------------|
C#|--------------------------------------|
G#|-------------------------------X2-----|
C#|---10---10-10----1010101010-----------|

Snare plays
(2:20 – 2:11)

F#|---------------------------------|
C#|---------------------------------|
G#|---------------------------------|
C#|-0000--000--00000--00000--0------|

Scream
(2:26 – 2:32)

F#|-----------------------------------|
C#|--Slower-Tempo---------------------|
G#|-----------------------------------|
C#|-0000--000--00000--00000--0---X4---|

Techno Part!
(2:46 - 3:00)

F#|---------------------------------------------|
C#|---------------------------------------------|
G#|---------------------------------------------|
C#|-0-0-0-0----8-8-8-8----3-3-3-3----10-10-10-10|

F#|----------------------------------------------------------|
C#|----------------------------------------------------------|
G#|----------------------------------------------------------|
C#|-0-0-0-0----8-8-8-8----3-3-3-3----10-10-10-10--0-Let-Ring-|

Outro (3:14 - 3:23)

F#|---------------------------------------------------|
C#|---------------------------------------------------|
G#|---------------------------------------------------|
C#|--000--0--000--0--00000000--0--Let-It-Ring-Till-End|
            
Tabs too difficult? Try these video lessons and learn fast.




comments powered by Disqus
↑ Back to top | Tablatures and chords are parodies/interpretations of the original songs. You may use it for private study, scholarship, research or language learning purposes only