» » »

Attack Attack, Stick Stickly Tabs (ver.3)

Artists:  A B C D E F G H I J K L M N O P Q R S T U V W X Y Z # 

Stick Stickly Tabs (ver.3)

Attack Attack Tabs
Rating:
0/5 (0 votes)
Stick Stickly lessons Tabs too difficult? Try these video lessons and learn fast
                
Intro(:00-:14)
----------------------------------------|
----------------------------------------|
----------------------------------------|
-000-000--00-00-000-000----------x4-----|
-000-000--00-00-000-000-----------------|
-000-000--00-00-000-000-----------------|
 ''' '''  '' '' ''' '''

Tremelo(:14-28)
----------------------------------------|
----------------------------------------|
---------X2---------------------6h9p6h9-|
-------------------------5h8p5h8--------|
-5-8-7-4-----------5h8p5h8--------------|
-T-T T-T----5h8p5h8---------------------|

Intro to riff(:28-30)
-----------------------------------------|
-----------------------------------------|
--------12-12-12-12-12/14----------------|
-0~--------------------------------------|
-0~-----10-10-10-10-10/12----------------|
-0~--------------------------------------|

(figure out strumming pattern)(:31-:51)
------------------------------------------|
------------------------------------------|
------------------------------------------|
-8-----10----5---------x4-----------------|
-8-----10----5----------------------------|
-8-----10----5----------------------------|

(:51-1:08)
----------------------------------------|
--5------5------5~----------------------|
--8------8------8~----------------------|
------------------------x6---8---10-----|
----00-0---00-0--------------8---10-----|
----00-0---00-0--------------8---10-----|
                           ^strumming^

Breakdown(1:10-1:41)
-----------------------------------------|
-----------------------------------------|
-----------------------------------------|
-----------------------------------------|
-111-1~-111-1~-11111111-111-1~-111-1~-*3-|
-222-2~-222-2~-22222222-222-2~-222-2~----|

-----------------------------------------|
-----------------------------------------|
-----------------------------------------|
-000-000-000-000-0-----------------------|
-000-000-000-000-0-8h12p8h12p8h12--------|
-000-000-000-000-0-----------------------|

----------------------------------------|
----------------------------------------|
----------------------------------------|
-000-000-000-000--000-000---------------|
-000-000-000-000--000-000---------------|
-000-000-000-000--000-000---------------|

-----------------------------------------|
-----------------------------------------|
-----------------------------------------|
-----------------------------------------|
-111-1~-111-1~-11111111-111-1~-111-1~-*3-|
-222-2~-222-2~-22222222-222-2~-222-2~----|

-----------------------------------------|
-----------------------------------------|
-----------------------------------------|
-000-000-000-000-0-----------------------|
-000-000-000-000-0-8h12p8h12p8h12--------|
-000-000-000-000-0-----------------------|

------------------------------------------|
------------------------------------------|
------------------------------------------|
-000-000-000-000--000-000-0---------------|
-000-000-000-000--000-000-0---------------|
-000-000-000-000--000-000-0---------------|

Strum (1:41-2:03)
----------------------------------------|
----------------------------------------|
----------------------------------------|
-8----10--0--10-------------------------|
-8----10--0--10-------------------------|
-8----10--0--10-------------------------|

(figure out strumming pattern)(2:03-2:23)
----------------------------------------|
----------------------------------------|
----------------------------------------|
-8-----10----5---------x4---------------|
-8-----10----5--------------------------|
-8-----10----5--------------------------|

Breakdown 2 (2:25-2:46)
----------------------------------------|
----------------------------------------|
----------------------------------------|
-0000-0000-00000--00000-0---------------|
-0000-0000-00000--00000-0---------------|
-0000-0000-00000--00000-0---------------|
(scream)
----------------------------------------|
----------------------------------------|
----------------------------------------|
-0000-0000-00000--00000-0---------------|
-0000-0000-00000--00000-0---------------|
-0000-0000-00000--00000-0---------------|

Sythy part (2:46-3:15)
----------------------------------------|
----------------------------------------|
101010-10/9/10-10101010/14-14-14-14-----|
----------------------------------------|
-8-8-8--8/7/8--8-8-8-8/12-12-12-12------|
----------------------------------------|

----------------------------------------|
----------------------------------------|
-101010101010-9-9-9/10/9/10-------------|
----------------------------------------|
--8-8-8-8-8-8-7-7-7/8/7/8---------------|
----------------------------------------|

----------------------------------------|
----------------------------------------|
-10~--14~--9~--10~----------------------|
----------------------------------------|
-8~---12~--7~--8~-----------------------|
----------------------------------------|

------------------------------------------|
------------------------------------------|
------------------------------------------|
----------------------------0~------------|
------111-1--111-1-11111111-0~------------|
-/10--222-2--222-2-22222222-0~------------|

Rate please:)
            
Submit corrections

comments powered by Disqus
↑ Back to top | Attack Attack Tabs for Stick Stickly. Lyrics for acoustic guitar and electric guitar. Tablatures and chords are parodies/interpretations of the original songs. You may use it for private study, scholarship, research or language learning purposes only