» » »

Attack Attack, Stick Stickly Tabs (ver.2)

Artists:  A B C D E F G H I J K L M N O P Q R S T U V W X Y Z # 

Stick Stickly Tabs (ver.2)

Attack Attack Tabs
 Rating:
4/5 (4 votes)
Stick Stickly lessons Tabs too difficult? Try these video lessons and learn fast
                Tuning: Drop C#
Did this totally by ear, so hopefully it sounds good =)

INTRO
|------------------------------------------|
|------------------------------------------|
|------------------------------------------| X4
|------------------------------------------|
|-000-000-0-00-0-00-000-000----------------|
|-000-000-0-00-0-00-000-000----------------|

|------------------------------------------|
|------------------------------------------|
|----------------------------------6h9p6h9-|X2
|----7T-5T------------------5h8p5h8--------|(figure out the tremelo picking)
|-5T-------7T--------5h8p5h8---------------|
|-------------5h8p5h8----------------------|

|------------------------------------------|
|------------------------------------------|
|----------12-12-12-12-12/14-14------------|
|-0~~~-------------------------------------|
|-0~~~-----10-10-10-10-10/12-12------------|
|-0~~~-------------------------------------|

Chorus (You never said this would be easy)
|------------------------------------------|
|------------------------------------------|
|-10----12---9---7-------------------------|X4
|---X13---X2--X7--X8-----------------------|
|-8-----10---7---5-------------------------|
|------------------------------------------|

|------------------------------------------|
|--------6-----6---------------------------|
|--------9-----9---------------------------|X5
|-0~-00-----0------------------------------|
|-0~-00-----0------------------------------|
|-0~-00-----0------------------------------|

|------------------------------------------|
|------------------------------------------|
|------------------------------------------|(figure out pattern)
|-8-----10---------------------------------|
|-8-----10---------------------------------|
|-8-----10---------------------------------|

Small Breakdown (X2 the whole part)
|------------------------------------------|
|------------------------------------------|
|------------------------------------------|
|------------------------------------------|
|-000~-0~-000~-0~-00000000-----------------|
|-111~-1~-111~-1~-11111111-----------------|

|------------------------------------------|
|------------------------------------------|
|------------------------------------------|
|------------------------------------------|
|-000~-0~-000~-0~-00000000--3*-------------|
|-111~-1~-111~-1~-11111111-----------------|

|------------------------------------------|
|------------------------------------------|
|------------------------------------------|
|------------------------------------------|
|-0000-0000-0000-0000-0--8h12p8h12p8h12----|
|-0000-0000-0000-0000-0--------------------|

|------------------------------------------|
|------------------------------------------|
|------------------------------------------|
|------------------------------------------|
|-0000-0000-0000-0000-0--8h12p8h12p8h12----|
|-0000-0000-0000-0000-0--------------------|

Chorus (Ill wait for you)
|------------------------------------------|
|------------------------------------------|
|------------------------------------------| X2(figure out strumming pattern)
|-8-----10-----0-----10--------------------|
|-8-----10-----0-----10--------------------|
|-8-----10-----0-----10--------------------|

Chorus (You never said this would be easy)
|------------------------------------------|
|------------------------------------------|
|-10----12---9---7-------------------------|X4
|---X13---X2--X7--X8-----------------------|
|-8-----10---7---5-------------------------|
|------------------------------------------|

|------------------------------------------|
|------------------------------------------|
|------------------------------------------|
|------------------------------------------|
|-000-000-00000-00000-0--------------------|
|-000-000-00000-00000-0--------------------|

Breakdown
|------------------------------------------|
|------------------------------------------|
|------------------------------------------| X4
|------------------------------------------|
|-000-000-00000-000-0-0--------------------|
|-000-000-00000-000-0-0--------------------|

Synth
|------------------------------------------|
|------------------------------------------|
|------------------------------------------| X2
|------------------------------------------|
|-0-0-0-0-8-8-8-8-3-3-3-3-5-5-5-5----------|
|-0-0-0-0-8-8-8-8-3-3-3-3-5-5-5-5----------|


Ending Breakdown
|------------------------------------------|
|------------------------------------------|
|------------------------------------------|
|---------------------------0~-------------|
|-000~-0~-000~-0~-000~-000~-0~-------------|
|-111~-1~-111~-1~-111~-111~-0~-------------|

Ring = ~
Tremelo Picking = T
Pinch Harmonic = *
h = hammer on
p = pull off
            
Submit corrections

comments powered by Disqus
↑ Back to top | Attack Attack Tabs for Stick Stickly. Lyrics for acoustic guitar and electric guitar. Tablatures and chords are parodies/interpretations of the original songs. You may use it for private study, scholarship, research or language learning purposes only