» » »

Attack Attack, Shred White And Blue Tabs (ver.1)

Artists:  A B C D E F G H I J K L M N O P Q R S T U V W X Y Z # 

Shred White And Blue Tabs (ver.1)

Attack Attack Tabs
Rating:
0/5 (0 votes)
Hard to play? Try these video lessons and learn fast.
                Shred, White, and Blue by Attack Attack!

This is my first tab so don't give me hell if I screw a few things up.


Tuning:Drop C#

Oh, and gb is gradual bend.

INTRO(0:00-0:12)
|-----------------------------|
|--------11----11~------------|
|--------14----14~------------|
|-----------------------------|
|---0-0------0-0--------------|
|---0-0------0-0--------------|(x4)
    * *      * *
(0:13-0:24)
|---------------------------------------------------------------------------|
|------4------4----4-4-4-4-4-4---------4----4----4-4-4-4-4-4----------------|
|------7------7----7-7-7-7-7-7---------7----7----7====gb===8----------------|
|---------------------------------------------------------------------------|
|--0-0----0-0---------------------0-0---0-0---------------------------------|
|--0-0----0-0---------------------0-0---0-0---------------------------------|(x2)
   * *    * *                     * *   * *
(0:25-0:38)
|---------------------------------------------------------------------------|
|---------------------------------------------------------------------------|
|---------------------------------------------------------------------------|
|------8------0-------------------------------------------------------------|
|--0-8-8--8-0-0-------------------------------------------------------------|
|--0-8-8--8-0-0-------------------------------------------------------------|(x4)
   * *    * *
(0:39-0:51)
|---------------------------------------------------------------------------|
|---------------------------------------------------------------------------|
|---------------------------------------------------------------------------|
|---000-000------000-000-000-000--------------------------------------------|
|---000-000------000-000-000-000--------------------------------------------|
|---000-000------000-000-000-000--------------------------------------------|(x2)
    *** ***      *** *** *** ***
(0:52-1:11)
|---------------------------------------------------------------------------|
|-------------6-6----4-4-4--------------------------------------------------|
|-------------9-9----7-7-7----(x2)------------------------------------------|
|---8------0-0----0-0-----------------0-------------------------------------|
|---8(x32)----------------------------0-------------------------------------|
|---8---------------------------------0-------------------------------------|
           * *    * *
(1:14-1:34)
|---------------------------------------------------------------------------|
|---------------------------------------------------------------------------|
|---------------------------------------------------------------------------|
|--0------8------0--------------0-------------------------------------------|
|--0(x16)-8(x16)-0--------------0-------------------------------------------|
|--0------8------0------000000000-------------------------------------------|(x2)
                        ********
(1:35-1:55)
|---------------------------------------------------------------------------|
|---------------------------------------------------------------------------|
|---------------------------------------------------------------------------|
|--0---------------8----------------10-------------------5~-----------------|
|--0---------------8----------------10-------------------5~-----------------|
|--0-------000000008--------8888888810---10101010101010105~-----------------|(x2)

(1:56-2:05)
|---------------------------------------------------------------------------|
|----4-4---4-4---4-4--------------(--4-------)------------------------------|
|----7-7---7-7---7-7-----4th time-(--7==gb==8)------------------------------|
|--0-----0-----0------------------(-0--------)------------------------------|
|--0------------------------------------------------------------------------|
|--0------------------------------------------------------------------------|(x4)
         *     *
(2:06-2:16)
|---------------------------------------------------------------------------|
|----11-11-----11-11---11-11------------------------------------------------|
|----14-14-----14-14---11-14------------------------------------------------|
|--0-------0---------0------------------------------------------------------|
|--0---------------------------4th time-------------------------------------|
|--0---------------------------8\-------------------------------------------|(x4)
           *         *

(2:17-end) t3h ub3r br00talz!
|---------------------------------------------------------------------------|
|---------------------------------------------------------------------------|
|---------------------------------------------------------------------------|
|--0-0-0-0-0-0---0000-------------------------------------------------------|
|--0-0-0-0-0-0---0000-------------------------------------------------------|
|--1-1-1-1-1-1---1111-------------------------------------------------------|


Thats all folks! If you got questions, I got answers. Comment me on my profile.
-Tanner





| /  slide up
| \  slide down
| h  hammer-on
| p  pull-off
| ~  vibrato
| +  harmonic
| x  Mute note
            

comments powered by Disqus
↑ Back to top | Attack Attack Tabs for Shred White And Blue. Lyrics for acoustic guitar and electric guitar. Tablatures and chords are parodies/interpretations of the original songs. You may use it for private study, scholarship, research or language learning purposes only