» » »

Attack Attack, Fumbles O'brian Tabs (ver.1)

Artists:  A B C D E F G H I J K L M N O P Q R S T U V W X Y Z # 

Fumbles O'brian Tabs (ver.1)

Attack Attack Tabs
Rating:
0/5 (0 votes)
Fumbles O'brian lessons Tabs too difficult? Try these video lessons and learn fast
                This tab was transcribed from "Dr.NuclearUG" Guitar Pro Tab
All credit goes to him.

Tuning: Drop B [B-F#-B-E-G#-C#]

Intro
|---------------------------------------------------|
|---------------------------------------------------|
|---------------------------------------------------|
|-0-0-0-0-0-0-0-0--3-3-3-3-3-3-3-3--7-7-7-7-7-7-7-7-|
|-0-0-0-0-0-0-0-0--3-3-3-3-3-3-3-3--7-7-7-7-7-7-7-7-|
|-0-0-0-0-0-0-0-0--3-3-3-3-3-3-3-3--7-7-7-7-7-7-7-7-|

|---------------------------------------------------|
|---------------------------------------------------|
|---------------------------------------------------|
|-5-5-5-5-5-5-5-5--0-0-0-0-0-0-0-0--3-3-3-3-3-3-3-3-|
|-5-5-5-5-5-5-5-5--0-0-0-0-0-0-0-0--3-3-3-3-3-3-3-3-|
|-5-5-5-5-5-5-5-5--0-0-0-0-0-0-0-0--3-3-3-3-3-3-3-3-|

|----------------------------------|
|----------------------------------|
|----------------------------------|
|-7-7-7-7-7-7-7-7--5-5-5-5-5-5-5-5-|
|-7-7-7-7-7-7-7-7--5-5-5-5-5-5-5-5-|
|-7-7-7-7-7-7-7-7--5-5-5-5-5-5-5-5-|


Verse
|----------------------------------------|
|----------------------------------------|
|----------------------------------------|
|----------------------------------------|
|-0--0--0--0----3--3--3--3----5--5--5--5-|
|-0--0--0--0----3--3--3--3----5--5--5--5-|

|--------------------------|
|--------------------------|
|--------------------------|
|--------------------------|
|-8--8--8--8----7--7--7--7-|
|-8--8--8--8----7--7--7--7-|


Pre-Chorus
|----------------------------------------------------------------|
|----------------------------------------------------------------|
|----------------------------------------------------------------|
|----------------------------------------------------------------|
|----------------------------------------------------------------|
|-0----0---0----0---0-0-0---12-12-12-12-12-0-12-0----------------|

|----------------------------------------------------------------|
|----------------------------------------------------------------|
|----------------------------------------------------------------|
|----------------------------------------------------------------|
|---------------0----0--0----0--0--0--0--------------------------|
|-11-11-11-11---1----1--1----1--1--1--1---0----0---0----0--0-0-0-|

|---------------------------------------------------------------|
|---------------------------------------------------------------|
|---------------------------------------------------------------|
|---------------------------------------------------------------|
|---------------------------------------0----0--0----0--0--0--0-|
|-12-12-12-12-12-0-12-0---11-11-11-11---1----1--1----1--1--1--1-|

|--------------------------------------|
|--------------------------------------|
|------------------5-5-5-5-5-5-5-5---9-|
|-0-0-0-0-0-0-0-0--3-3-3-3-3-3-3-3---7-|
|-0-0-0-0-0-0-0-0--3-3-3-3-3-3-3-3---7-|
|-0-0-0-0-0-0-0-0--3-3-3-3-3-3-3-3---7-|


Chorus
|---------------------------------------------------------------------|
|----------------------------------------------------8-8-8-8-5-5-5-5--|
|-----------------------------------9-9-9-9-9-9-9-9--|-|-|-|-|-|-|-|--|
|-0-0-0-0-0-0-0-0--3-3-3-3-3-3-3-3--7-7-7-7-7-7-7-7--5-5-5-5-5-5-5-5--|
|-0-0-0-0-0-0-0-0--3-3-3-3-3-3-3-3--7-7-7-7-7-7-7-7--5-5-5-5-5-5-5-5--|
|-0-0-0-0-0-0-0-0--3-3-3-3-3-3-3-3--7-7-7-7-7-7-7-7--5-5-5-5-5-5-5-5--|

|---------------------------------------------------|
|---------------------------------------------------|
|-----------------------------------9-9-9-9-9-9-9-9-|
|-0-0-0-0-0-0-0-0--3-3-3-3-3-3-3-3--7-7-7-7-7-7-7-7-|
|-0-0-0-0-0-0-0-0--3-3-3-3-3-3-3-3--7-7-7-7-7-7-7-7-|
|-0-0-0-0-0-0-0-0--3-3-3-3-3-3-3-3--7-7-7-7-7-7-7-7-|

|---------------------------------------------------|
|---5-5-5---6-6-6-----------------------------------|
|---|-|-|---|-|-|-----------------------------------|
|-5-5-5-5-5-5-5-5--0-0-0-0-0-0-0-0--3-3-3-3-3-3-3-3-|
|-5-5-5-5-5-5-5-5--0-0-0-0-0-0-0-0--3-3-3-3-3-3-3-3-|
|-5-5-5-5-5-5-5-5--0-0-0-0-0-0-0-0--3-3-3-3-3-3-3-3-|

|--------------------------------------------------------------------|
|------------------8-8-8-8-5-5-5-5-----------------------------------|
|-9-9-9-9-9-9-9-9--|-|-|-|-|-|-|-|-----------------------------------|
|-7-7-7-7-7-7-7-7--5-5-5-5-5-5-5-5--0-0-0-0-0-0-0-0--3-3-3-3-3-3-3-3-|
|-7-7-7-7-7-7-7-7--5-5-5-5-5-5-5-5--0-0-0-0-0-0-0-0--3-3-3-3-3-3-3-3-|
|-7-7-7-7-7-7-7-7--5-5-5-5-5-5-5-5--0-0-0-0-0-0-0-0--3-3-3-3-3-3-3-3-|

|-----------------------------------|
|----------------------------5-5-5--|
|-9-9-9-9-9-9-9-9------------|-|-|--|
|-7-7-7-7-7-7-7-7--5-5-5-5-5-5-5-5--|
|-7-7-7-7-7-7-7-7--5-5-5-5-5-5-5-5--|
|-7-7-7-7-7-7-7-7--5-5-5-5-5-5-5-5--|


Verse
|----------------------------------------|
|----------------------------------------|
|----------------------------------------|
|----------------------------------------|
|-0--0--0--0----3--3--3--3----5--5--5--5-|
|-0--0--0--0----3--3--3--3----5--5--5--5-|

|------------------|
|------------------|
|------------------|
|------------------|
|-7-7-7-7--8-8-8-8-|
|-7-7-7-7--8-8-8-8-|

|------------------------------------------------------|
|------------------------------------------------------|
|------------------------------------------------------|
|------------------------------------------------------|
|-0--0--0--0----3--3--3--3----5--5--5--5----8--8--8--8-|
|-0--0--0--0----3--3--3--3----5--5--5--5----8--8--8--8-|


Breakdown
|--------------------------------------------------|
|--------------------------------------------------|
|--------------------------------------------------|
|--------------------------------------------------|
|-0----0--0----0--0-----0----0--0--0--0--0--0----0-|
|-1----1--1----1--1-----1----1--1--1--1--1--1----1-|

|-------------------------------------------|
|-------------------------------------------|
|-------------------------------------------|
|-------------------------------------------|
|-0--0-----0--0--0--0-----0---0--0-----0--0-|
|-1--1-----1--1--1--1-----1---1--1-----1--1-|

|-----------------------------------------|
|-----------------------------------------|
|-----------------------------------------|
|-----------------------------------------|
|-0----0--0--0--0--0--0--0--0--0--0-----0-|
|------1--1--1--1--1--1--1--1--1--1-----1-|

|---------------------|
|---------------------|
|---------------------|
|---------------------|
|-0--0-----0--0--0--0-|
|-1--1-----1--1--1--1-|

|--------------------------------------|
|--------------------------------------|
|------------------5-5-5-5-5-5-5-5---9-|
|-0-0-0-0-0-0-0-0--3-3-3-3-3-3-3-3---7-|
|-0-0-0-0-0-0-0-0--3-3-3-3-3-3-3-3---7-|
|-0-0-0-0-0-0-0-0--3-3-3-3-3-3-3-3---7-|


Break


Outro
|---------------------------------------------------|
|---------------------------------------------------|
|-9-9-9-9-9-9-9-9--5-5-5-5-5-5-5-5------------------|
|-7-7-7-7-7-7-7-7--3-3-3-3-3-3-3-3--0-0-0-0-0-0-0-0-|
|-7-7-7-7-7-7-7-7--3-3-3-3-3-3-3-3--0-0-0-0-0-0-0-0-|
|-7-7-7-7-7-7-7-7--3-3-3-3-3-3-3-3--0-0-0-0-0-0-0-0-|

|---------------------------------------------------|
|-----------------------------------8-8-8-8-5-5-5-5-|
|-----------------------------------|-|-|-|-|-|-|-|-|
|-3-3-3-3-3-3-3-3--7-7-7-7-7-7-7-7--5-5-5-5-5-5-5-5-|
|-3-3-3-3-3-3-3-3--7-7-7-7-7-7-7-7--5-5-5-5-5-5-5-5-|
|-3-3-3-3-3-3-3-3--7-7-7-7-7-7-7-7--5-5-5-5-5-5-5-5-|

|---------------------------------------------------|
|---------------------------------------------------|
|-----------------------------------9-9-9-9-9-9-9-9-|
|-0-0-0-0-0-0-0-0--3-3-3-3-3-3-3-3--7-7-7-7-7-7-7-7-|
|-0-0-0-0-0-0-0-0--3-3-3-3-3-3-3-3--7-7-7-7-7-7-7-7-|
|-0-0-0-0-0-0-0-0--3-3-3-3-3-3-3-3--7-7-7-7-7-7-7-7-|

|---------------------------------------------------|
|---5-5-5---6-6-6-----------------------------------|
|---|-|-|---|-|-|-----------------------------------|
|-5-5-5-5-5-5-5-5--0-0-0-0-0-0-0-0--3-3-3-3-3-3-3-3-|
|-5-5-5-5-5-5-5-5--0-0-0-0-0-0-0-0--3-3-3-3-3-3-3-3-|
|-5-5-5-5-5-5-5-5--0-0-0-0-0-0-0-0--3-3-3-3-3-3-3-3-|

|---------------------------------------------------|
|------------------8-8-8-8-5-5-5-5------------------|
|-9-9-9-9-9-9-9-9--|-|-|-|-|-|-|-|------------------|
|-7-7-7-7-7-7-7-7--5-5-5-5-5-5-5-5--0-0-0-0-0-0-0-0-|
|-7-7-7-7-7-7-7-7--5-5-5-5-5-5-5-5--0-0-0-0-0-0-0-0-|
|-7-7-7-7-7-7-7-7--5-5-5-5-5-5-5-5--0-0-0-0-0-0-0-0-|

|---------------------------------------------------|
|---------------------------------------------5-5-5-|
|------------------9-9-9-9-9-9-9-9------------|-|-|-|
|-3-3-3-3-3-3-3-3--7-7-7-7-7-7-7-7--5-5-5-5-5-5-5-5-|
|-3-3-3-3-3-3-3-3--7-7-7-7-7-7-7-7--5-5-5-5-5-5-5-5-|
|-3-3-3-3-3-3-3-3--7-7-7-7-7-7-7-7--5-5-5-5-5-5-5-5-|

|----------------------------------|
|----------------------------------|
|----------------------------------|
|-0-0-0-0----7-7-7-7--8-8-8-8----0-|
|-0-0-0-0----7-7-7-7--8-8-8-8----0-|
|-0-0-0-0----7-7-7-7--8-8-8-8----0-|
            

comments powered by Disqus
↑ Back to top | Attack Attack Tabs for Fumbles O'brian. Lyrics for acoustic guitar and electric guitar. Tablatures and chords are parodies/interpretations of the original songs. You may use it for private study, scholarship, research or language learning purposes only