» » »

Electric Relaxation Bass tabs (ver.4)

Artists:  A B C D E F G H I J K L M N O P Q R S T U V W X Y Z # 

Electric Relaxation Bass tabs (ver.4)

A Tribe Called Quest
Rating:
0/5 (0 votes)

Tabs too difficult? Try these video lessons and learn fast.
                This is my first tab!
I love this song and I couldnt't believe that all of the tabs on the internet were a bit off.
I did this by ear so it might not be right.

G|---------------------------3---1-------------------------|
D|------4---------4----1-------------------1---3---4----2--|
A|---2----1----------1----------------------------------4--|
E|---------------------------------------------------------| this goes on 
throughout the entiree song.


Also, you could add this at the beggining of it, but I don't know if its right

G|-----------------------|
D|--------------4--------|
A|--0---1---2----1-------|
E|-----------------------|

I hope its right and enjoy this sick song :)
            
Tabs too difficult? Try these video lessons and learn fast.




comments powered by Disqus
↑ Back to top | Tablatures and chords are parodies/interpretations of the original songs. You may use it for private study, scholarship, research or language learning purposes only