» » »

Next Of Kin Tabs (ver.1)

Artists:  A B C D E F G H I J K L M N O P Q R S T U V W X Y Z # 

Next Of Kin Tabs (ver.1)

A Thorn For Every Heart
Rating:
5/5 (1 vote)

Hard to play? Try these video lessons and learn fast.
                -------------------------------------------------------------------------------
                             A Thorn For Every Heart - Next Of Kin
-------------------------------------------------------------------------------

Note-  This version is from "Things Aren't So Beautiful Now".  NOT "Silence is Golden."  
my first tab, so feedback/corrections would be appreciated.

Tuning:DADGDD

Intro: Guitar 1 (Clean)  (:00-:11)
D|--------0-0--------0-0-0----------------0-----|
D|--------0-0--------0-0-0----------------0-----|
G|----------------------------------------------|x2
D|9-11-11------11-11-121212-----------7-7-7-----|
A|9-9--9-------9--9--9-9-9---9\5-555--5-5-5-----|
D|9-9--9-------9--9--9-9-9---0---000--5-5-5-----|

(Part 2): Guitar 1 (Distortion)  (:11-:32)
D|--------0-0--------0-0-0----------------0-----|
D|--------0-0--------0-0-0----------------0-----|
G|----------------------------------------------|x4
D|9-11-11------11-11-121212-----------7-7-7-----|
A|9-9--9-------9--9--9-9-9---9\5-555--5-5-5-----|
D|9-9--9-------9--9--9-9-9---0---000--5-5-5-----|

(Part 2): Guitar 2 (Distortion) (:11-:32)
D|---------------------|
D|--------+7---+5---+7-|
G|-----+7--------------|x4
D|-+12-----------------|
A|---------------------|
D|---------------------|

(Verse):  Guitar 1 (Distortion) (:32-:53)
D|----------------------------------------|
D|----------------------------------------|
G|----------------------------------------|
D|99999999--55555555--99999999--5555555-2-|x2
A|99999999--55555555--99999999--5555555-2-|
D|99999999--55555555--99999999--5555555-2-|
  ........  ........  ........  .......
(Verse):  Guitar 2 (Distortion) 2nd time with guitar 1 (:42-:53)
D|----------------------------|
D|----------------------------|
G|12--12-12-12--7-7--6-6------|
D|--9---9--9--9--9-9--7-7-----|
A|----------------------------|
D|----------------------------|
  . . . . . . . . . . . .

(Fill): Both Guitars (Distortion) (:53-:55)
D|--------------------------------|
D|--------------------------------|
G|--------------------------------|
D|3p2-0-7p0-0--3p2-0-7p0-0---555--|
A|3p2-0-7p0-0--3p2-0-7p0-0---555--|
D|3p2-0-7p0-0--3p2-0-7p0-0---555--|

-->(Part 2)
-->(Verse)
-->(Fill)

(Bridge):  Both Guitars (Distortion) (1:39-1:59)
D|------------------------------------0---------0---------0---------0---|
D|------------------------------------0---------0---------0---------0---|
G|----------------------------------------------------------------------|
D|9-----5-----9-----5----2---------11---11----7---7----11---11----7---7-|
A|9-x16-5-x16-9-x16-5-x8-2-x8----9----------5--------9----------5-------|
D|9-----5-----9-----5----2-------9----------5--------9----------5-------|

(Buildup): Guitar 1 (Distortion) (1:59-2:19)
D|------------------------------------|
D|------------------------------------|
G|-------------------------------|x 2-|
D|9-----5-----9-----5----2------------|
A|9-x16-5-x16-9-x16-5-x8-2-x8---------|
D|9-----5-----9-----5----2------------|
  .     .     .
(Buildup): Guitar 2 (Distortion) (2:14-2:19)
D|---------------------------------------------------------------------------------|
D|---------------------------------------------------------------------------------|
G|7---9---11--12---14--------------------------------------------------------------|
D|x---x---x----x----x--------------------------------------------------------------|
A|5---7---9---10---12--------------------------------------------------------------|
D|---------------------------------------------------------------------------------|

(Last Chorus):  Guitar 1 (2:19-End)
D|---------------------------------------|
D|---------------------------------------|
G|---------------------------------------|
D|9------5------9-----5-----2------9-----|
A|9-x16--5-x16--9x16--5-x8--2x8---9------|
D|9------5------9-----5-----2------9-----|

(Guitar 2 Plays (Part 2) During last chorus)

| .  palm mute
| /  slide up
| \  slide down
| h  hammer-on
| p  pull-off
| ~  vibrato
| +  harmonic
| x  Mute note
===============================================================================
            
Hard to play? Try these video lessons and learn fast. | Correct




comments powered by Disqus
↑ Back to top | Tablatures and chords are parodies/interpretations of the original songs. You may use it for private study, scholarship, research or language learning purposes only