>
 >
Dead Man's Party

Dead Man's Party Guitar Tabs

A Thorn For Every Heart - Dead Man's Party chords, tabs, tablatures, lyrics

Guitar lessons | Add/correct | Request | Top 50 tabs Artists:  A B C D E F G H I J K L M N O P Q R S T U V W X Y Z 0-9

Dead Man's Party Guitar Tabs – A Thorn For Every Heart

CD, Sheet music, Poster

Do you like Dead Man's Party? Share with your friends now
Tabs
    ~intro~
e|---------------------------|
b|---------------------------|
g|---------------------------|
d|------7-9-7----------------|
a|-7-10-------10-7-----5-7-7-|
e|-----------------5-7-------| play twice

*singer starts* (no guitar, drums and bass)

all dressed up with no where to go
e|-------------------------|
b|-------------------------|
g|-------------------------|
d|------7-9-7--------------|
a|-7-10-------10-7-----5-7-|
e|-----------------5-7-----|  

singer again

walking with a dead man over my sholder
e|-7--7--7--7-77-|
b|-7--7--7--7-77-|
g|-7--7--7--7-77-|  *echo effect
d|---------------|
a|---------------|
e|---------------|

pause for the singer again

all dressed up with no where |
to go,                       | walking with a 
                             | dead man over 
                             | my sholder
                             |
e|---------------------------|------------------|--------------------------|
b|---------------------------|------------------|--------------------------|
g|---------------------------|------------------|99999999-7-7-7--7-79-9999-|
d|------7-9-7----------------|-7777777799999999-|99999999-7-7-7--7-79-9999-|
a|-7-10-------10-7-----5-7-7-|-7777777799999999-|77777777-5-5-5--5-57-7777-|
e|-----------------5-7-------|-5555555577777777-|--------------------------|


singer

waitin for an invatation to arrive
e|---------------------------|
b|---------------------------|
g|---------------------------|
d|------7-9-7----------------|
a|-7-10-------10-7-----5-7-7-|
e|-----------------5-7-------|  

singer

goin to a party but no one is still alive

e|-7--7--7--7-77-|
b|-7--7--7--7-77-|
g|-7--7--7--7-77-|
d|---------------|
a|---------------|
e|---------------|

singer

all dressed up with no where| 
to go                       |
                            | walking with a dead
                            | man over my shoulder
e|--------------------------|-----------------|
b|--------------------------|-----------------|
g|-----------------7----5---|-----------------|
d|------7-9-7--------99---9-|7777777799999999-|
a|-7-10-------10-7----------|7777777799999999-|
e|--------------------------|5555555577777777-|



CHORUS

e|--------------------------------------------------------------|
b|--------------------------------------------------------------|
g|-999999999999-7-7-999999999999-----99999999-------------------|
d|-999999999999-7-7-999999999999-7-7-99999999-5-5-55555555-5-5-7|
a|-777777777777-5-5-777777777777-7-7-77777777-5-5-55555555-5-5-7|
e|-------------------------------5-5----------3-3-33333333-3-3-5|

leave your body out so lock the door

e|------------|
b|------------|
g|------7-7-9-|
d|-5--5-7-7-9-|
a|-5--5-5-5-9-|
e|-3--3-----7-|


singer

don't run away its only me!

e|---------------------------|
b|---------------------------|
g|---------------------------|
d|------7-9-7----------------|   *keep playing while he sings next line*
a|-7-10-------10-7-----5-7-7-|
e|-----------------5-7-------| 

e|--------------------------|
b|--------------------------|
g|99999999-7-7-7--7-79-9999-|
d|99999999-7-7-7--7-79-9999-|
a|77777777-5-5-5--5-57-7777-|
e|--------------------------|

singer

got my best suit and my tie
e|---------------------------|
b|---------------------------|
g|---------------------------|
d|------7-9-7----------------|
a|-7-10-------10-7-----5-7-7-|
e|-----------------5-7-------|  

singer

shine a silver dollar in either eye

e|-7--7--7--7-77-|
b|-7--7--7--7-77-|
g|-7--7--7--7-77-|
d|---------------|
a|---------------|
e|---------------|

singer

I hear the chauffeur coming to the door

e|--------------------------|-----------------|
b|--------------------------|-----------------|
g|-----------------7----5---|-----------------|
d|------7-9-7--------99---9-|7777777799999999-|
a|-7-10-------10-7----------|7777777799999999-|
e|--------------------------|5555555577777777-|

CHORUS

e|--------------------------------------------------------------|
b|--------------------------------------------------------------|
g|-999999999999-7-7-999999999999-----99999999-------------------|
d|-999999999999-7-7-999999999999-7-7-99999999-5-5-55555555-5-5-7|
a|-777777777777-5-5-777777777777-7-7-77777777-5-5-55555555-5-5-7|
e|-------------------------------5-5----------3-3-33333333-3-3-5|


leave your body out so lock the door

e|------------|
b|------------|
g|------7-7-9-|
d|-5--5-7-7-9-|
a|-5--5-5-5-9-|
e|-3--3-----7-|

singer

don't run away its only me
e|---------------------------|
b|---------------------------|
g|---------------------------|  *keep playing while he sings
d|------7-9-7----------------|
a|-7-10-------10-7-----5-7-7-|
e|-----------------5-7-------|  

CHORUS

e|--------------------------------------------------------------|
b|--------------------------------------------------------------|
g|-999999999999-7-7-999999999999-----99999999-------------------|
d|-999999999999-7-7-999999999999-7-7-99999999-5-5-55555555-5-5-7|
a|-777777777777-5-5-777777777777-7-7-77777777-5-5-55555555-5-5-7|place twice
e|-------------------------------5-5----------3-3-33333333-3-3-5|


last part till the end

e|------------------------------|
b|------------------------------|
g|99-9999-7-7-7--7-7-7777-5-5-5-|
d|99-9999-7-7-7--7-7-7777-5-5-5-|
a|77-7777-5-5-5--5-5-5555-3-3-3-|
e|------------------------------|





Comments


Popular A Thorn For Every Heart tabs & chords
A Night To Remember, A Morning To Forget Bass Tabs
A Night To Remember, A Morning To Forget 1 Bass Tabs
Streetcar Bass Tabs
A Night To Remember A Morning To Forget Intro Tabs
Born To Bleed Tabs
February 3 Tabs
Streetcar Tabs
Summer So Bleek Intro Tabs
You're The One Tabs
Youre The One Ukulele


Song lyrics



↑ Back to top | Tablatures and chords are parodies/interpretations of the original songs. You may use it for private study, scholarship, research or language learning purposes only
© 2014 AZChords.com Contact us | Privacy policy | DMCA | Add/correct tabs | Request tabs | Top 50 tabs