>
 >
Born To Bleed

Born To Bleed Guitar Tabs

A Thorn For Every Heart - Born To Bleed chords, tabs, tablatures, lyrics

Guitar lessons | Add/correct | Request | Top 50 tabs Artists:  A B C D E F G H I J K L M N O P Q R S T U V W X Y Z 0-9

Born To Bleed Guitar Tabs – A Thorn For Every Heart

CD, Sheet music, Poster

Do you like Born To Bleed? Share with your friends now
Tabs

RHYTHM GUITAR

RIFF A / Intro & Verse (0:00-0:31)
e) -------------------------------------------------------------|
B) -------------------------------------------------------------|
G) -------------------------------------------------------------|
D) ------------------------------7-7-7-7-7-7--7-----------------| 4x
A) 9-9-9-9-9-9--9-5-5-5-5-5-5--5-5-5-5-5-5-5--5--7-7-7-7-7-7--7-|
E) 7-7-7-7-7-7--7-3-3-3-3-3-3--3-----------------5-5-5-5-5-5--5-|

RIFF B / First Chorus (0:31-0:47)
e) -----------------------------------------------------------------|
B) -----------------------------------------------------------------|
G) --------------------------------7-7-7-7-7-7-7-7------------------|
D) 9-9-9-9-9-9-9-9-5-5-5-5-5-5-5-5-7-7-7-7-7-7-7-7--7-7-7-7-7-7-7-7-| 2x
A) 9-9-9-9-9-9-9-9-5-5-5-5-5-5-5-5-5-5-5-5-5-5-5-5--7-7-7-7-7-7-7-7-|
E) 7-7-7-7-7-7-7-7-3-3-3-3-3-3-3-3------------------5-5-5-5-5-5-5-5-|

RIFF A (0:47-1:02)
Repeat 2x

RIFF C / Pre-Chorus (1:02-1:18)
e) ----------------------------------------------------------------|
B) ----------------------------------------------------------------|
G) ----------------------------------------------------------------|
D) ------------------------------------------------7-7-7-7-7-7-7-7-|
A) 5-5-5-5-5-5-5-5-7-7-7-7-7-7-7-7-9-9-9-9-9-9-9-9-5-5-5-5-5-5-5-5-|
E) 3-3-3-3-3-3-3-3-5-5-5-5-5-5-5-5-7-7-7-7-7-7-7-7-----------------|

e) ----------------------------------------------------------------|
B) ----------------------------------------------------------------|
G) ----------------------------------------------------------------|
D) ----------------------------------------------------------------| 1x
A) 5-5-5-5-5-5-5-5-7-7-7-7-7-7-7-7-9-9-9-9-9-9-9-9-9-9-9-9-9-9-9---|
E) 3-3-3-3-3-3-3-3-5-5-5-5-5-5-5-5-7-7-7-7-7-7-7-7-7-7-7-7-7-7-7---|

RIFF D / Main Chorus (1:18-1:34)
e) ----------------------------------------------------------------|
B) ----------------------------------------------------------------|
G) 7-7-7-7-7-7-7-7-------------------------------------------------|
D) 7-7-7-7-7-7-7-7-5-5-5-5-5-5-5-5-9-9-9-9-9-9-9-9-7-7-7-7-7-7-7-7-| 2x
A) 5-5-5-5-5-5-5-5-5-5-5-5-5-5-5-5-9-9-9-9-9-9-9-9-7-7-7-7-7-7-7-7-|
E) ----------------3-3-3-3-3-3-3-3-7-7-7-7-7-7-7-7-5-5-5-5-5-5-5-5-|

RIFF E / Post-Chorus (1:34-1:42)
e) ----------------------------------------------------------------|
B) ----------------------------------------------------------------|
G) ----------------------------------------------------------------|
D) 4-------------------------------5-------------------------------| 1x
A) 5-------------------------------5-------------------------------|
E) 2-------------------------------3-------------------------------|

RIFF A (1:42-1:58)
Repeat 2x

RIFF C (1:58-2:13)
Repeat 1x

RIFF D (2:13-2:45)
Repeat 4x

RIFF F / 2nd Post-Chorus (2:45-3:01)
e) ----------------------------------------------------------------|
B) ----------------------------------------------------------------|
G) ----------------------------------------------------------------|
D) 4-------------------------------5-------------------------------|
A) 5-------------------------------5-------------------------------|
E) 2-------------------------------3-------------------------------|

e) ----------------------------------------------------------------|
B) ----------------------------------------------------------------|
G) ----------------------------------------------------------------|
D) 4-------------------------------5---5---5-----------------------| 1x
A) 5-------------------------------5---5---5-----------------------|
E) 2-------------------------------3---3---3-----------------------|

RIFF G / Bridge (3:01-3:16)
e) ----------------------------------------------------------------|
B) ----------------------------------------------------------------|
G) ----------------------------------------------------------------|
D) ----------------------------------------------------------------| 1x
A) ----------------5-------------------------------5---------------|
E) 7-------3---------------5-------7-------3---------------5-------|

RIFF H / 2nd Pre-Chorus (3:16-3:32)
e) ----------------------------------------------------------------|
B) ----------------------------------------------------------------|
G) ----------------------------------------------------------------|
D) 7-7-7-7-7-7-7-7-------------------------------------------------|
A) 5-5-5-5-5-5-5-5-5-5-5-5-5-5-5-5-7-7-7-7-7-7-7-7-5-5-5-5-5-5-5-5-|
E) ----------------3-3-3-3-3-3-3-3-5-5-5-5-5-5-5-5-2-2-2-2-2-2-2-2-|

e) ----------------------------------------------------------------|
B) ----------------------------------------------------------------|
G) ----------------------------------------------------------------|
D) 7-7-7-7-7-7-7-7-------------------------------------------------| 1x
A) 5-5-5-5-5-5-5-5-5-5-5-5-5-5-5-5-7-7-7-7-7-7-7-7-7-7-7-7-7-------|
E) ----------------3-3-3-3-3-3-3-3-5-5-5-5-5-5-5-5-5-5-5-5-5-------|

RIFF D (3:32-4:03)
Repeat 4x

RIFF E (4:03-FADE OUT)
Repeat 1x


___________________________________________________________________

LEAD GUITAR

RIFF A / Verse (0:15-0:31)
e) ---10---------5---------12---------9------|
B) 10---------10--------10---------10--------|
G) ------------------------------------------|
D) ------------------------------------------| 2x
A) ------------------------------------------|
E) ------------------------------------------|

RIFF B / Chorus (0:31-0:47)
e) 17--15--14-----------------------------------------------------|
B) ------------15--17--15------15--17--15------15------15------15-|
G) ------------------------14--------------14------14------14-----|
D) ---------------------------------------------------------------| 2x
A) ---------------------------------------------------------------|
E) ---------------------------------------------------------------|

RIFF C / 2nd Verse (0:47-1:02)
e) -------------------------------------------------------------|
B) -------------------------------------------------------------|
G) -------------------------------------------------------------|
D) ------------------------------7-7-7-7-7-7--7-----------------| 2x
A) 9-9-9-9-9-9--9-5-5-5-5-5-5--5-5-5-5-5-5-5--5--7-7-7-7-7-7--7-|
E) 7-7-7-7-7-7--7-3-3-3-3-3-3--3-----------------5-5-5-5-5-5--5-|

RIFF D / Pre-Chorus (1:02-1:18)
e) --------------------------------------------------------10---------|
B) ---10------10------10------10------10------10------10------10---10-|
G) -7----7--7----7--7----7--7----7--7----7--7----7--7----7-------7----|
D) -------------------------------------------------------------------|
A) -------------------------------------------------------------------|
E) -------------------------------------------------------------------|

e) ------------------------------------------------10---------10------|
B) ---10------10------10------10------10------10------10---10----10---|
G) -7----7--7----7--7----7--7----7--7----7--7----7-------7----------7-|
D) -------------------------------------------------------------------| 1x
A) -------------------------------------------------------------------|
E) -------------------------------------------------------------------|

RIFF E / 2nd Chorus (1:18-1:34)
e) ----------------------------------------------------------------|
B) ----------------------------------------------------------------|
G) 7-7-7-7-7-7-7-7-------------------------------------------------|
D) 7-7-7-7-7-7-7-7-5-5-5-5-5-5-5-5-9-9-9-9-9-9-9-9-7-7-7-7-7-7-7-7-|
A) 5-5-5-5-5-5-5-5-5-5-5-5-5-5-5-5-9-9-9-9-9-9-9-9-7-7-7-7-7-7-7-7-|
E) ----------------3-3-3-3-3-3-3-3-7-7-7-7-7-7-7-7-5-5-5-5-5-5-5-5-|

e) ----------------------------------------------------------------|
B) ----------------8-8-8-8-8-8-8-8-7-7-7-7-7-7-7-7-----------------|
G) 7-7-7-7-7-7-7-7---------------------------------9-9-9-9-9-9-9-9-|
D) ----------------5-5-5-5-5-5-5-5-4-4-4-4-4-4-4-4-----------------| 1x
A) 5-5-5-5-5-5-5-5---------------------------------7-7-7-7-7-7-7-7-|
E) ----------------------------------------------------------------|

RIFF F / Post-Chorus (1:34-1:42)
e) --------------------------------10--------|
B) ----10-------10------------10-------------|
G) 7--------7--------7----7------------------|
D) ------------------------------------------| 1x
A) ------------------------------------------|
E) ------------------------------------------|

RIFF B (1:42-1:58)
Repeat 2x

RIFF D (1:58-2:13)
Repeat Whole Riff 1x

RIFF E (2:13-2:45)
Repeat First Part 2x, Then Repeat Second Part 2x

RIFF F / 2nd Post-Chorus (2:45-3:01)
e) --------------------------------10-----------------10----------|
B) ----10-------10------10----10-------10---10---10-------10---10-|
G) 7--------7--------7------7----7--------7----7----7--------7----|
D) ---------------------------------------------------------------|
A) ---------------------------------------------------------------|
E) ---------------------------------------------------------------|

e) --------------------------------10--------|
B) ----10-------10------------10-------------|
G) 7--------7--------7----7------------------|
D) ------------------------------------------| 1x
A) ------------------------------------------|
E) ------------------------------------------|

RIFF G / Bridge (3:01-3:16)
e) ------------------------------------------------|
B) 10-10-10-10-10-10-10-10-10-10-10-10-10-10-10-10-|
G) ------------------------------------------------|
D) ------------------------------------------------|
A) ------------------------------------------------|
E) ------------------------------------------------|

e) ------12-------12----12-------10-------10----10-|
B) 10-10----10-10----10----10-10----10-10----10----|
G) ------------------------------------------------|
D) ------------------------------------------------|
A) ------------------------------------------------|
E) ------------------------------------------------|

e) ------------------------------------------------|
B) 10-10-10-10-10-10-10-10-10-10-10-10-10-10-10-10-|
G) ------------------------------------------------|
D) ------------------------------------------------|
A) ------------------------------------------------|
E) ------------------------------------------------|


e) ------12-------12----12-------14-------14----14-|
B) 10-10----10-10----10----10-10----10-10----10----|
G) ------------------------------------------------|
D) ------------------------------------------------|
A) ------------------------------------------------|
E) ------------------------------------------------|

RIFF H / 2nd Pre-Chorus (3:16-3:32)
e) 17--15--14-----------------------------------------------------|
B) ------------15--17--15------15--17--15------15------15------15-|
G) ------------------------14--------------14------14------14-----|
D) ---------------------------------------------------------------|
A) ---------------------------------------------------------------|
E) ---------------------------------------------------------------|

e) 17--15--14-----------------------------------------------------|
B) ------------15--17--15------15--17--15------15------15---------|
G) ------------------------14--------------14------14------14-----|
D) ---------------------------------------------------------------| 1x
A) ---------------------------------------------------------------|
E) ---------------------------------------------------------------|

RIFF E (3:32-4:03)
Repeat First Part 2x, Then Repeat Second Part 2x

RIFF F (4:03-FADE OUT)
Repeat 1x 
Hold Last Note Until Fade Out





Comments


Popular A Thorn For Every Heart tabs & chords
99 With An Anchor Bass Tabs
Streetcar Bass Tabs
Dead Man's Party Tabs
February Tabs
February 1 Tabs
February 3 Tabs
Next Of Kin Tabs
Streetcar Tabs
You're The One Tabs
Youre The One Ukulele


Song lyrics



↑ Back to top | Tablatures and chords are parodies/interpretations of the original songs. You may use it for private study, scholarship, research or language learning purposes only
© 2014 AZChords.com Contact us | Privacy policy | DMCA | Add/correct tabs | Request tabs | Top 50 tabs