» » »

A Night To Remember A Morning To Forget Bass tabs (ver.2)

Artists:  A B C D E F G H I J K L M N O P Q R S T U V W X Y Z # 

A Night To Remember A Morning To Forget Bass tabs (ver.2)

A Thorn For Every Heart
Rating:
0/5 (0 votes)

Hard to play? Try these video lessons and learn fast.
                Sick band, sick song.
If you don't like it then go f**k yourself (and why are you reading this?)

Intro x4 (0:01–0:23)
G|---------------------------------|
D|---------------------------------|
A|---------------------------------|
D|33-33-33-33-333-77-77-77-77-777--|

Pre-Verse x2 (0:23–0:45)
G|---------------------------------|
D|---------------------------------|
A|0~-0~-0/5~-5~--0~-0~-------------|
D|----------------------0-0-0~-----|

Verse (0:46–1:21)
G|-----------------9-7-6-----------------------------|
D|------7---7-0--07-----------7---7-0-0--------------|
A|0---07---7-7----------0---07---7-7-----------------|
D|---------------------------------------3-33-2223---|

G|-----------------9-7-6-----------------------------|
D|------7---7-0--07-----------7---7-0-0--------------|
A|0---07---7-7----------0---07---7-7-----------------|
D|--------------------------------------023-323-3223-|

Chorus (1:22–1:42)
G|---------------------------------|
D|---------------------------------|
A|---------------------------------|
D|33333333333333778888888888888888-|

G|----------------------------------|
D|----------------------------------|
A|------------------------9875-4320-|
D|333333333333337788888888----------|

G|---------------------------|
D|---------------------------|
A|---------------------------|
D|3-33-3-3-33378-88-8-8-8888-|

G|------------------------------|
D|------------------------------|
A|------------------------------|
D|3-33-3-3-33778888888888888888-|

Post-Chorus (1:42–1:52)
G|--------------|    |---------------|
D|--------------|    |---------------|
A|----1----3--5-|    |-----6----8—10-|
D|0000-0000-00--| x2 |-0000-0000-00--| x2

Chorus (1:52–2:12)
G|---------------------------------|
D|---------------------------------|
A|---------------------------------|
D|33333333333333778888888888888888-|

G|----------------------------------|
D|----------------------------------|
A|------------------------9875-4320-|
D|333333333333337788888888----------|

G|---------------------------|
D|---------------------------|
A|---------------------------|
D|3-33-3-3-33378-88-8-8-8888-|

G|------------------------------|
D|------------------------------|
A|------------------------------|
D|3-33-3-3-33778888888888888888-|

Post-Chorus (2:13-2:23)
G|--------------|    |---------------|
D|--------------|    |---------------|
A|----1----3--5-|    |-----6----8—10-|
D|0000-0000-00--| x2 |-0000-0000-00--| x2

Transition (2:23-2:25)
G|---------|
D|---------|
A|---------|
D|0~~~~----|

Intro x4 (2:26-2:48)
G|---------------------------------|
D|---------------------------------|
A|---------------------------------|
D|33-33-33-33-333-77-77-77-77-777--|

Pre-Verse x2 (2:48–3:10)
G|---------------------------------|
D|---------------------------------|
A|0~-0~-0/5~-5~--0~-0~-------------|
D|----------------------0-0-0~-----|

Verse (3:10–3:45)
G|-----------------9-7-6-----------------------------|
D|------7---7-0--07-----------7---7-0-0--------------|
A|0---07---7-7----------0---07---7-7-----------------|
D|---------------------------------------3-33-2223---|

G|-----------------9-7-6-----------------------------|
D|------7---7-0--07-----------7---7-0-0--------------|
A|0---07---7-7----------0---07---7-7-----------------|
D|--------------------------------------023-323-3223-|

Chorus (3:45–4:05)
G|---------------------------------|
D|---------------------------------|
A|---------------------------------|
D|33333333333333778888888888888888-|

G|----------------------------------|
D|----------------------------------|
A|------------------------9875-4320-|
D|333333333333337788888888----------|

G|---------------------------|
D|---------------------------|
A|---------------------------|
D|3-33-3-3-33378-88-8-8-8888-|

G|------------------------------|
D|------------------------------|
A|------------------------------|
D|3-33-3-3-33778888888888888888-|

Post Chorus (4:06–4:15)
G|--------------|    |---------------|
D|--------------|    |---------------|
A|----1----3--5-|    |-----6----8—10-|
D|0000-0000-00--| x2 |-0000-0000-00--| x2

Chorus (4:16–4:36)
G|---------------------------------|
D|---------------------------------|
A|---------------------------------|
D|33333333333333778888888888888888-|

G|----------------------------------|
D|----------------------------------|
A|------------------------9875-4320-|
D|333333333333337788888888----------|

G|---------------------------|
D|---------------------------|
A|---------------------------|
D|3-33-3-3-33378-88-8-8-8888-|

G|------------------------------|
D|------------------------------|
A|------------------------------|
D|3-33-3-3-33778888888888888888-|

Chances are there are some mistakes (not sure about the rythm for the last two bars of 
chorus), but still it sounds pretty good. Enjoy.
            
Hard to play? Try these video lessons and learn fast. | Correct




comments powered by Disqus
↑ Back to top | Tablatures and chords are parodies/interpretations of the original songs. You may use it for private study, scholarship, research or language learning purposes only