» » »

A Step Beyond, La Bamba Tabs (ver.1)

Artists:  A B C D E F G H I J K L M N O P Q R S T U V W X Y Z # 

La Bamba Tabs (ver.1)

A Step Beyond Tabs
 Rating:
4/5 (4 votes)
La Bamba lessons Tabs too difficult? Try these video lessons and learn fast
                This is a cool song thanks to los Lobos

Intro 
-------------------------------------
-------------------------------------
------   0-------------------0-------
-----  2-----2-0-----0-33-2------2-0-x2
-- 023-----3-------2-----------3-----
-3---------------3-------------------

-------1-1---------------------------------
-1-1-0-1-1---------------------------------
-0-0-0-2-2--------0------------------------
-2-2-0-3-3----0332--20---------------------x hole song
-3-3-0-3-3---2-----3-----------------------
-------1-1--3------------------------------

-------------------------------------
-------------------------------------
------   0-------------------0-------
-----  2-----2-0-----0-33-2------2-0-x2
-- 023-----3-------2-----------3-----
-3---------------3-------------------
            
Submit corrections

comments powered by Disqus
↑ Back to top | A Step Beyond Tabs for La Bamba. Lyrics for acoustic guitar and electric guitar. Tablatures and chords are parodies/interpretations of the original songs. You may use it for private study, scholarship, research or language learning purposes only