» » »

A Step Beyond, I Wish This Dream Could Last Tabs (ver.1)

Artists:  A B C D E F G H I J K L M N O P Q R S T U V W X Y Z # 

I Wish This Dream Could Last Tabs (ver.1)

A Step Beyond Tabs
Rating:
0/5 (0 votes)
I Wish This Dream Could Last lessons Tabs too difficult? Try these video lessons and learn fast
                HI this song goes out to her! 


Intro
E--------------------------------------------------
B--------------------------------------------------
G-------------------------------------------------- 
D-------9---7--------------9---7-------------------  x6
A---7------------------7---------------------------
E--------------------------------------------------


E--------------------------------------------------
B--------------------------------------------------
G----------------------------------7-7-7-7---------
D---7-7-7-7-7-7-7-7----4-4-4-4-----7-7-7-7--------- (Play threw hole song)
A---7-7-7-7-7-7-7-7----4-4-4-4-----5-5-5-5---------
E---5-5-5-5-5-5-5-5----2-2-2-2---------------------

---------Your the girl of my dreams 
I dream of us holding hands as winter 
pass kissing on the grass Oh I wish this dream could last

E--------------------------------------------------
B--------------------------------------------------
G-------------------------------------------------- 
D-------9---7--------------9---7-------------------  x6
A---7------------------7---------------------------
E--------------------------------------------------
-------------Your the girl of my dreams 
In my dream we were holding hands and walking by the beach
I want you to be my girl friend Oh I wish this dream could last
Your friends dad Rubs his d**k on broken glass
E--------------------------------------------------
B--------------------------------------------------
G-------------------------------------------------- 
D-------9---7--------------9---7-------------------  x6
A---7------------------7---------------------------
E--------------------------------------------------

Oh I wish this dream could last
Your friends dad Rubs his d**k on broken glass!
            
Submit corrections

comments powered by Disqus
↑ Back to top | A Step Beyond Tabs for I Wish This Dream Could Last. Lyrics for acoustic guitar and electric guitar. Tablatures and chords are parodies/interpretations of the original songs. You may use it for private study, scholarship, research or language learning purposes only