>
 >
The Prestige

The Prestige Guitar Tabs

A Static Lullaby - The Prestige chords, tabs, tablatures, lyrics

Guitar lessons | Add/correct | Request | Top 50 tabs Artists:  A B C D E F G H I J K L M N O P Q R S T U V W X Y Z 0-9

The Prestige Guitar Tabs – A Static Lullaby

CD, Sheet music, Poster

Do you like The Prestige? Share with your friends now
Tabs
[The Prestige]
[Rattlesnake!]
[A Static Lullaby]

Tuning: DADGBE (Drop D)

why has no1 heard this album?! ahaha so sick! lyrics in this
song are just dirtyyy!

it goes like thiss..

[Riff 1] - [00:00] - [00:09]
- -----------------------------------|----|
- -----------------------------------|----|
- -------10p0----------7p0-----------|----|
- -7p0-0------7p0-10p0-----0-7p0-7p0-|-3b-|
- -----------------------------------|-3b-| End with bend
- -----------------------------------|-3b-|

----------------------------------------------------------------------------

[Riff 2] - [00:09] - [00:24]
- ----------------------------------|
- ----------------------------------|
- ----------------------------------|
- ----------------------------------|
- -------8p0----------5p0-----------|
- -7p0-0-----7p0-10p0-----0-7p0-7p0-|

----------------------------------------------------------------------------

[Riff 3] - [00:24] - [00:33]
- -------------------------------------|----|
- -------------------------------------|----|
- -3h4p3p0-3h4p3p0-3h4p3p0-3h4p3p0-----|----|
- ---------------------------------3-3-|-0~-|
- ---------------------------------3-3-|-0~-| End on open
- ---------------------------------3-3-|-0~-|
PM                                       ..
-
- -------------------------------------|----|
- -------------------------------------|----|
- -------------------------------------|----|
- ---------------------------------3-3-|-0~-|
- ---------------------------------3-3-|-0~-| End on open
- ---------------------------------3-3-|-0~-|
PM                                       ..

----------------------------------------------------------------------------

[Riff 2] - [00:33] - [00:47]

----------------------------------------------------------------------------

[Riff 4] - [00:47] - [01:02]
- --------------------------------------------------------------|
- --------------------------------------------------------------|
- --------------------------------------------------------------|
- --------------------------------------------------------------|
- --------------------------------------------------------------|
- -7(12x)--8(4x)--10(8x)--7(4x)--10(4x)--7(12x)--3(4x)--0(16x)--|
-
- --------------------------------------------------------------|
- --------------------------------------------------------------|
- -5-------------------------------------9-------10-----12------|
- -x-------------------------------------x-------x------x-------|
- -3(32x)--------------------------------7(12x)--8(4x)--10(16x)-|
- --------------------------------------------------------------|


- --------------------------------------------------------------------|
- --------------------------------------------------------------------|
- --------------------------------------------------------------------|
- -------------------------------------------------------------x------|
- -------------------------------------------------------------x------|
- -7(12x)--8(4x)--10(8x)--7(4x)--10(4x)--7(12x)--3(4x)--0(6x)--x(10x)-|
-
- --------------------------------------------------------------------|
- --------------------------------------------------------------------|
- -5-------------------------------------9-------10-----7------x------|
- -x-------------------------------------x-------x------x------x------|
- -3(32x)--------------------------------7(12x)--8(4x)--5(6x)--x(10x)-|
- --------------------------------------------------------------------|

----------------------------------------------------------------------------

[Riff 5] - [01:02] - [01:17]
- --------------------------------------------------------|
- --------------------------------------------------------|
- --------------------------------------------------------|
- -7-7-7--7-7-7--7-7-7--7-7-7--3-3-3--3-3-3--6-6-6--6-6-6-|
- -7-7-7--7-7-7--7-7-7--7-7-7--3-3-3--3-3-3--7-7-7--7-7-7-|
- -7-7-7--7-7-7--7-7-7--7-7-7--3-3-3--3-3-3--6-6-6--6-6-6-|
-
- --------------------------------------------------------|
- -3------------/6-----/8------10-------------9-----------|
- --------------------------------------------------------|
- --------------------------------------------------------|
- --------------------------------------------------------|
- --------------------------------------------------------|


- --------------------------------------------------------|
- --------------------------------------------------------|
- --------------------------------------------------------|
- -7-7-7--7-7-7--7-7-7--7-7-7--3-3-3--3-3-3--6-6-6--6-6-6-|
- -7-7-7--7-7-7--7-7-7--7-7-7--3-3-3--3-3-3--7-7-7--7-7-7-|
- -7-7-7--7-7-7--7-7-7--7-7-7--3-3-3--3-3-3--6-6-6--6-6-6-|
-
- --------------------------------------------------------|
- --------------------------------------------------------|
- -9--------------------10--------------------13----------|
- -----------------------------10-------------------------|
- --------------------------------------------------------|
- --------------------------------------------------------|

----------------------------------------------------------------------------

[Riff 6] - [01:17] - [01:32]
- ----------------------------------------|
- ----------------------------------------|
- ----------------------------------------|
- ----------------------------------------|
- ----------------------------------------|
- -7(16x)--9(8x)--10(8x)--3(16x)--6(16x)--|
-
- ----------------------------------------|
- ----------------------------------------|
- -5-------7------9-------2-------7-------|
- -x-------x------x-------x-------x-------|
- -3(16x)--5(8x)--7(8x)---0(16x)--5(16x)--|
- ----------------------------------------|
-
- -17-----------------------------16------|
- ----------------------------------------|
- ----------------------------------------|
- ----------------------------------------|
- ----------------------------------------|
- ----------------------------------------|


- ---------------------------------------|
- ---------------------------------------|
- ---------------------------------------|
- --------------------------------x------|
- --------------------------------x------|
- -7(16x)--9(8x)--10(8x)--3(24x)--x(8x)--|
-
- ---------------------------------------|
- ---------------------------------------|
- -5-------7------9-------2--------------|
- -x-------x------x-------x-------x------|
- -3(16x)--5(8x)--7(8x)---0(24x)--x------|
- --------------------------------x(8x)--|
-
- -17------------------------------------|
- ---------------------------------------|
- ---------------------------------------|
- ---------------------------------------|
- ---------------------------------------|
- ---------------------------------------|

----------------------------------------------------------------------------

[Riff 2] - [01:32] - [01:40]

----------------------------------------------------------------------------

[Riff 7] - [01:40] - [01:55]
- --------------------------------------------------------------|
- --------------------------------------------------------------|
- --------------------------------------------------------------|
- --------------------------------------------------------------|
- --------------------------------------------------------------|
- -7(12x)--8(4x)--10(8x)--7(4x)--10(4x)--7(12x)--3(4x)--0(16x)--|
-
- --------------------------------------------------------------|
- --------------------------------------------------------------|
- -5-------------------------------------9-------10-----12------|
- -x-------------------------------------x-------x------x-------|
- -3(32x)--------------------------------7(12x)--8(4x)--10(16x)-|
- --------------------------------------------------------------|


- -------------------------------------------------------------|
- -------------------------------------------------------------|
- -------------------------------------------------------------|
- -------------------------------------------------------------|
- -------------------------------------------------------------|
- -7(12x)--8(4x)--10(8x)--7(4x)--10(4x)--7(12x)--3b-----0~-----|
-
- -------------------------------------------------------------|
- -------------------------------------------------------------|
- -5-------------------------------------9-------10-----7------|
- -x-------------------------------------x-------x------x------|
- -3(32x)--------------------------------7(12x)--8(4x)--5(16x)-|
- -------------------------------------------------------------|

----------------------------------------------------------------------------

[Riff 8] - [01:55] - [02:02]
- -----------------------------------|
- -----------------------------------|
- -------10p0----------7p0-----------|
- -7p0-0------7p0-10p0-----0-7p0-7p0-|  Delayy? somethin of the sort.
- -----------------------------------|
- -----------------------------------|
PM .................................

----------------------------------------------------------------------------

[Riff 9] - [02:02] - [02:10]
- -----------------------------------|
- -----------------------------------|
- -------10p0----------7p0-----------|
- -7p0-0------7p0-10p0-----0-7p0-7p0-|
- -----------------------------------|
- -----------------------------------|
PM .........................

- -----------------------------------|
- -----------------------------------|
- -------10p0----------7p0-----------|
- -7p0-0------7p0-10p0-----0-7p0-7p0-|
- -----------------------------------|
- -----------------------------------|
PM ...................

- -----------------------------------|
- -----------------------------------|
- -------10p0----------7p0-----------|
- -7p0-0------7p0-10p0-----0-7p0-7p0-|
- -----------------------------------|
- -----------------------------------|
PM ...................

- -----------------------------------|
- -----------------------------------|
- -------10p0----------7p0-----------|
- -7p0-0------7p0-10p0-----0-7p0-7p0-|
- -----------------------------------|
- -----------------------------------|

Get the right noise with the effect and the muting n
not muting of the right strings.. cuz its delayed..
n then it sounds cool :P

----------------------------------------------------------------------------

[Riff 5] - [02:10] - [02:25]

----------------------------------------------------------------------------

[Riff 10] - [02:25] - [02:40]
- ----------------------------------------|
- ----------------------------------------|
- ----------------------------------------|
- ----------------------------------------|
- ----------------------------------------|
- -7(16x)--9(8x)--10(8x)--3(16x)--6(16x)--|
-
- ----------------------------------------|
- ----------------------------------------|
- -5-------7------9-------2-------7-------|
- -x-------x------x-------x-------x-------|
- -3(16x)--5(8x)--7(8x)---0(16x)--5(16x)--|
- ----------------------------------------|
-
- -17-----------------------------16------|
- ----------------------------------------|
- ----------------------------------------|
- ----------------------------------------|
- ----------------------------------------|
- ----------------------------------------|


- ----------------------------------------|
- ----------------------------------------|
- ----------------------------------------|
- ----------------------------------------|
- ----------------------------------------|
- -7(16x)--9(8x)--10(8x)--3(16x)--6(16x)--|
-
- ----------------------------------------|
- ----------------------------------------|
- -5-------7------9-------2-------7-------|
- -x-------x------x-------x-------x-------|
- -3(16x)--5(8x)--7(8x)---0(16x)--5(16x)--|
- ----------------------------------------|
-
- -17---------------------20--------------|
- ----------------------------------------|
- -----------------------------------19b~-|
- ----------------------------------------|
- ----------------------------------------|
- ----------------------------------------|

The 19 bend plays out into Riff 11 and does a whole buncha fancy
stuff, hav fun with it hehe

----------------------------------------------------------------------------

[Riff 11] - [02:40] - [02:54]
- -----------------------------------------|
- -----------------------------------------|
- -----------------------------------------|
- -7~--------------------------------------|
- -7~--------------------------------------|
- -7~-------------0h3b-0~------------------|

----------------------------------------------------------------------------


[Riff 12] - [02:54] - [03:20]
- ---------------------------------|-------|
- ---------------------------------|-6-6-6-|
- ---------------------------------|-9-9-9-| Middle before second time thru
- ---------------------------------|-------|
- -0---0---00000-----00-00-0-00-00-|-------|
- -0---0---00000-----00-00-0-00-00-|-------|
PM ...............................

(Last two times thru let palm mute ring out)

----------------------------------------------------------------------------

[Riff 13] - [03:20] - [03:23]
--------------------------------------------------------|
--------------------------------------------------------|
--------------------------------------------------------|
--------------------------------------------------------|
- -0---0---00000----------------------------------------|
- -0---0---00000-----7p0-0-0-7p0-0-0-7p0-0-0-7p0-0-0-7\-|
PM .............

----------------------------------------------------------------------------

[Riff 14] - [03:23] - [03:31]
- ----------------------------------|-----|
- ----------------------------------|-13--|
- ----------------------------------|-17b-| End on bend
- ----------------------------------|-----|
- -------8p0----------5p0-----------|-----|
- -7p0-0-----7p0-10p0-----0-7p0-7p0-|-----|
-
- ----------------------------------|-----|
- ----------------------------------|-15--|
- ----------------------------------|-18b-| End on bend
- ----------------------------------|-----|
- -------8p0----------5p0-----------|-----|
- -7p0-0-----7p0-10p0-----0-7p0-7p0-|-----|

----------------------------------------------------------------------------

[Riff 15] - [03:31] - [03:46]
- ----------------------------------|-----------------|
- ----------------------------------|-----------------|
- ----------------------------------|-----------------|
- ----------------------------------|-x-x-x-x-x-x-x-x-| End on dead notes
- -------8p0----------5p0-----------|-x-x-x-x-x-x-x-x-|
- -7p0-0-----7p0-10p0-----0-7p0-7p0-|-x-x-x-x-x-x-x-x-|

----------------------------------------------------------------------------

[Riff 16] - [03:46] - [03:54]
- ---------------------------------|------|
- ---------------------------------|------|
- ---------------------------------|------|
- ---------------------------------|------|
- -------5p0---------1p0-----------|------|
- -3p0-0-----3p0-5p0-----0-3p0-3p0-|-[3b]-| End on harmonic bend

----------------------------------------------------------------------------

[Riff 17] - [03:54] - [04:06]
- -----------------------|
- -----------------------|
- -----------------------|
- -0~--------------------|
- -0~--------------------|
- -0~--------------------|

[Symbols]
p     Pull Off
b     Bend
h     Hammer On
x     Dead Note (Muted String/No Noise)
( x)  Hit note x amount of times
/     Slide Up
\     Slide Down
PM... Palm Mute notes with ... under them
[ ] Harmonic
br    Bend and Release


..rrr somethin like thattt ;)





Comments


Popular A Static Lullaby tabs & chords
Lipgloss And Letdown Bass Tabs
A Sip Of Wine Chased With Cyan 1 Tabs
Calmer Than You Are Tabs
Collision Intro Tabs
Smooth Modulator Intro Tabs
Toxic 1 Tabs
Toxic 3 Tabs
Whithered Tabs
Withered (Solo) Tabs
Withered 1 Tabs


Song lyrics



↑ Back to top | Tablatures and chords are parodies/interpretations of the original songs. You may use it for private study, scholarship, research or language learning purposes only
© 2014 AZChords.com Contact us | Privacy policy | DMCA | Add/correct tabs | Request tabs | Top 50 tabs