» » »

A Static Lullaby, Scavenger Bass tabs (ver.1)

Artists:  A B C D E F G H I J K L M N O P Q R S T U V W X Y Z # 

Scavenger Bass tabs (ver.1)

A Static Lullaby Tabs
 Rating:
4.2/5 (5 votes)
Scavenger lessons Tabs too difficult? Try these video lessons and learn fast
                Artist  :A Static Lullaby
Album   :Rattlesnake!
Track   :Scavenger
Tunning :Drop D


(C minor)

-Intro 1/A-                                       (Tens & Ones)
G|------------------------------------------------------------|
D|------------------------------------------------------------|
A|------------------------------------------------------------|
D|-10101010101010-1111111111111-10101010101010-1111111111111--|

G|------------------------------------------------------------------|
D|------------------------------------------------------------------|
A|------------------------------------------------------------------|
D|-10101010101010-1111111111111-6666666666666-5555555/171717171717\-|

-Intro 1/B-
G|---------------------------------------------|
D|---------------------------------------------|
A|----3~3333~3336~666----------6~666-----8~888-|
D|-10\---------------6~6663~333-----3~333------|

G|------------------------------------------|
D|------------------------------------------|
A|-3~3333~3336~666----------6~666-----8~888-|
D|----------------6~6663~333-----3~333------|

-Verse 1-
G|--------------------------------------------|
D|----------------------------------666555333-|
A|-3~3333~3336~666----------6~666-------------|
D|----------------6~6663~333-----3~3----------|

G|----------------------------------------------|
D|----------------------------------------------|
A|-3~3333~3336~666--------------------888666555-|
D|----------------6~666333111555333666----------|

-Chorus 1-
G|--------------------------------------------------------------------------------------|
D|--------------------------------------------------------------------------------------|
A|--------------------------------------------------------------3~3333555666-1~11111111-|
D|-6~666666666666666-1~11111111/11111111111111-3~333333333333333------------------------|
                     (One then slide to Eleven)
G|----------------------------------------------------------------------------------|
D|----------------------------------------------------------------------------------|
A|----555666888---555666888--------333333666666555555-------------------------------|
D|-666---------666---------11111111------------------666666666661111111111113333333-|

-Post Chorus 1-
G|------------------------------------------------------------|
D|------------------------------------------------------------|
A|-333333-3333------------------333333-3333-------------------|
D|------------3333-111111-111111-----------3333-111111-111111-|

-Intro 2/B-
G|------------------------------------------|
D|------------------------------------------|
A|-3~3333~3336~666----------6~666-----8~888-|
D|----------------6~6663~333-----3~333------|

G|------------------------------------------|
D|------------------------------------------|
A|-3~3333~3336~666----------6~666-----8~888-|
D|----------------6~6663~333-----3~333------|

-Verse 1-
G|---------------------------------------------|
D|-----------------------------------666555333-|
A|-3~3333~3336~666-----------6~666-------------|
D|----------------6~6663~3333-----3~3----------|

G|------------------------------------------|
D|------------------------------------------|
A|-3~3333~3336~666----------6~666-----8~888-|
D|----------------6~6663~333-----3~333------|

G|--------------------------------------------|
D|----------------------------------666555333-|
A|-3~3333~3336~666----------6~666-------------|
D|----------------6~6663~333-----3~3----------|

G|----------------------------------------------|
D|----------------------------------------------|
A|-3~3333~3336~666--------------------888666555-|
D|----------------6~666333111555333666----------|

-Chorus 2-
G|-----------------------------------------------------------------------------|
D|-----------------------------------------------------------------------------|
A|-----------------------------------------------------3~3333555666-1~11111111-|
D|-6~666666666666666-1~11111111111111-3~333333333333333------------------------|
                    
G|----------------------------------------------------------------------------------|
D|----------------------------------------------------------------------------------|
A|----555666888---555666888--------333333666666555555-------------------------------|
D|-666---------666---------11111111------------------666666666661111111111113333333-|

-Break 1-
G|-------------------------------|
D|-------------------------------|
A|-333333--222222--111111--------|
D|-------------------------77777-|

G|---------------------------------------------------------|
D|---------------------------------------------------------|
A|-333333355556666-22222222----------11111111111-----------|
D|-------------------------1111133333-----------7777777777-|

-Chorus 3-
G|--------------------------------------------------------------|
D|--------------------------------------------------------------|
A|--------------------------------------3~3333555666-1~11111111-|
D|-11\-1~1111111111111-3~333333333333333------------------------|
                     
G|---------------------------------------------------------------------------|
D|---------------------------------------------------------------------------|
A|----555666888---555666888------------1086865-------------------------------|
D|-666---------666---------1~1~1--1~1~1-------666666666661111111111113333333-|

-Post Chorus 2-
G|-------------------------------------------------------------------|
D|-------------------------------------------------------------------|
A|-333333-3333------------------333333-3333----------6~666-----8~888-|
D|------------3333-111111-111111-----------3333-1~111-----3~333------|

-Intro 3/B-
G|------------------------------------------|
D|------------------------------------------|
A|-3~3333~3336~666----------6~666-----8~888-|
D|----------------6~6663~333-----3~333------|

G|------------------------------------------|
D|------------------------------------------|
A|-3~3333~3336~666----------6~666-----8~888-|
D|----------------6~6663~333-----3~333------|

-End-
G|--------|
D|--------|
A|-3~~~~~-|
D|--------|

Enjoy.
            
Submit corrections

comments powered by Disqus
↑ Back to top | A Static Lullaby Bass for Scavenger. Lyrics for acoustic guitar and electric guitar. Tablatures and chords are parodies/interpretations of the original songs. You may use it for private study, scholarship, research or language learning purposes only