» » »

Lipgloss And Letdown Bass tabs (ver.1)

Artists:  A B C D E F G H I J K L M N O P Q R S T U V W X Y Z # 

Lipgloss And Letdown Bass tabs (ver.1)

A Static Lullaby
Rating:
4/5 (4 votes)

Hard to play? Try these video lessons and learn fast.
                Static Lullaby
"Lipgloss And Letdown"
...And Don't Forget To Breathe (Track 4)
Drop-D Tuning (DADG)

Intro:
G-----|---------------------------------------------------------
D-----|---------------------------------------------------------
A-12\1|-0-00000------0-00000-3----0-00000-----------------------
D-----|--------3-3-33-------3--333-------3-3-3-35555555-33-2-222

{0:11}
G------------------------------------------------
D------------------------------------------------
A-0-00000------0-00000-3----0-00000--------------
D--------3-3-33-------3--333-------3-3-3-35~~~3~~

1st Verse: {0:22}
G---------------------------------------------------
D---------------------------------------------------
A-0000--00-00-3333--33-33-------------0000000~------
D-------------------------3333--33-33------------023

{0:33}
G---------------------------------------------------
D---------------------------------------------------
A-0000--00-00-3333--33-33-------------00000000000000
D-------------------------3333--33-33---------------

Bridge {0:43}
G-------------------------------------------------------------------------
D-------------------------------------------------------------------------
A-3333-0000-----------3333-0000-----------3333300000----------3333-0000---
D-----------3333-3333-----------3333-3333-----------333333333-----------3~

1st Chorus: {1:00}
G--------------------------------------
D--------------------------------------
A-0>>-----3>>-----0>>-----3>>-------8\1
D-----3>>-----5>>-----3>>-----3~~3~~---

2nd Verse: {1:21}                              (This is the 1 part 
G-----------------------------------------222~~|----2-52  i'm not sure
D----------------------------------------------|--23-3--     about)
A-0000--00-00-3333--33-33-------------0000-----|03------
D-------------------------3333--33-33----------|--------

{1:32}
G----------------00022200002-----------------------------
D---------------------------3----------------7--7--7-7777
A-0000--00-00-333------------3-----------0000-00-00-0----
D-----------------------------3333--33-33----------------

{1:43}
G-------------02-------------------------------------
D---------------3-------5555-------------------------
A-000000000000---0333333----3333---------000000000000
D-------------------------------333333333------------

{1:54}
G-------------02-------------------------------------
D---------------3-------5555-------------------777777
A-000000000000---0333333----3333---------000000------
D-------------------------------333333333------------

2nd Chorus: {2:04} (x2)
G----------------
D----------------
A-0>>-----3>>----
D-----3>>-----5>>

Breakdown: {2:28}
G-----------------------------------------------------------------------------
D-----------------------------------------------------------------------------
A--------------------0~~~~~~~~~~~~~~~~~~-------------------0~~~~~~~~~~~~~~~~~~
D-3~~~~~~~~~~~~~~~~~~-------------------3~~~~~~~~~~~~~~~~~~-------------------

{2:47}
G---------------------------------------------------------------------------------------------------------------------
D---------------------------------------------------------------------------------------------------------------------
A---------------------------------0-0-0-0-0-0-0-0-0-0-0-0-0-0-0-0---------------------------------0-0-0-0-0-0-0-3/12>>
D-3-3-3-3-3-3-3-3-3-3-3-3-3-3-3-3---------------------------------3-3-3-3-3-3-3-3-3-3-3-3-3-3-3-3---------------------

3rd Chorus: {3:08}
G------------------------------------
D------------------------------------
A-0>>-----3>>-----0>>-----3>>--------
D-----3>>-----5>>-----3>>-----5>>5/13

{3:29} (x4)
G--------
D--------
A-----0>>
D-3>>----

Ending: (4:11)
G----
D----
A-0-0
D----


Please rate it if you like it. Email me if you have any questions,
or have any suggestions about that 1 part. Thanks.
            
Hard to play? Try these video lessons and learn fast. | Correct




comments powered by Disqus
↑ Back to top | Tablatures and chords are parodies/interpretations of the original songs. You may use it for private study, scholarship, research or language learning purposes only