>
 >
Lipgloss And Letdown

Lipgloss And Letdown Guitar Tabs

A Static Lullaby - Lipgloss And Letdown chords, tabs, tablatures, lyrics

Guitar lessons | Add/correct | Request | Top 50 tabs Artists:  A B C D E F G H I J K L M N O P Q R S T U V W X Y Z 0-9

Lipgloss And Letdown Guitar Tabs – A Static Lullaby

CD, Sheet music, Poster

Do you like Lipgloss And Letdown? Share with your friends now
Bass TabsBass Tabs v2Tabs
-------------------------------------------------------------------------------
-------------------------------------------------------------------------------



Tuning:Drop D DADGBE low to high

Lipgloss and Letdown

guitar 1 intro
-------------------------------------------
-------------------------------------------
-------------------------------------------
--7----3----7----3----7----3----5----3-----
--7-x4-3-x5-7-x4-3-x5-7-x4-3-x5-5-x3-3-----
--7----3----7----3----7----3----5----3-----

guitar 2 intro
-----------------------------------------------------
--5-----5----5----5----5----5------------------------
---5-5--5-x4--5-5-5-x4--5-5-5-x4---------------------
----7---3------7--3------7--3----5----3--------------
---------------------------------5-x3-3---------3.5*-
---------------------------------5----3-----3.5*-----

guitar 1 prechorus
--------------------------------
--------------------------------
-5----7----10----10-------------
-5-x4-7-x4-10-x3-10-x3----------
-3----5----8-----7--------------
--------------------------------

guitar 2 prechorus
------------------------------
------------------------------
-5----7----5-x3-5-x3----------
-5-x4-7-x4-3----2-------------
-3----5-----------------------
------------------------------


guitar 1 chorus  
---------------------------------------------------
---------------------------------------------------
-------------5---------------------------5---------
-7-----3-----5-x16-5---------7-----3-----5-x16-3-3-
-7-x16-3-x16-3-----5-x16-----7-x16-3-x16-3-----3-3-
-7-----3-----------5---------7-----3-----------3-3-

guitar 2 chorus 
--------------------------------------------------
--------------------------------------------------
-9-----5-----5-----7/9-9-9/7-7-7/9/12-12-12-------
-7-x16-3-x16-5-x16-5/7-7-7/5-5-5/7/10-10-10-------
-------------3------------------------------------
--------------------------------------------------

--------------------------
--------------------------
-9-----5-----5------------
-7-x16-3-x16-5-x16-3-3----
-------------3-----3-3----
-------------------3-3----

guitar 2 verse 2 Fast As Fuck (not sure about this)
---------------------------
---------------------------
---------------------------
--0-3-7-3-5-7-8-7-5-7-5-7--
---------------------------
---------------------------

guitar 1 prechorus
---------------------------------------------------
---------------------------------------------------
---------------------------------------------------
-7-----10-----3-----7-----7-----10----3-----7------
-7-x16-10-x16-3-x16-7-x16-7-x16-10-x6-3-x16-7-x16--
-7-----10-----3-----7-----7-----10----3-----7------ 

guitar 2 prechorus (figure out the strumming yourself aint that hard)

-------------------------------------------------
-------------------------------------------------
-9-14-12-17-16-17-16-9-14-12-17-16-17-19-17------
-7-12-10-15-14-15-14-7-12-10-15-14-15-17-15------
-7-12-10-15-14-15-14-7-12-10-15-14-15-17-15------
-------------------------------------------------

guitar 1 2nd chorus  
-----------------------------
-----------------------------
-------------5---------------
-7-----3-----5-x16-5---------
-7-x16-3-x16-3-----5-x16-----
-7-----3-----------5---------

guitar 2 chorus 
--------------------------------------------------
--------------------------------------------------
-9-----5-----5-----7/9-9-9/7-7-7/9/12-12-12-------
-7-x16-3-x16-5-x16-5/7-7-7/5-5-5/7/10-10-10-------
-------------3------------------------------------
--------------------------------------------------

breakdown guitar 1
----------------------------------------------------
----------------------------------------------------
----------------------------------------------------
-3-3/7-9----3---------7-----3-----7-----------------
-3-3/7-7-x2-3-x16-----7-x16-3-x16-7-x10? pickscrape-
-3-3/7-7----3---------7-----3-----7-----------------

breakdown guitar 2
-----------------------------------------------------
-6----5-----6-------5-------6----8-6-5-6-5-8-6-5-----
--5-5--5-5---5-5-x4--5-5-x4--5-5---------------------
---7----7-----7-------7-------7----------------------
-----------------------------------------------------
-----------------------------------------------------

guitar 1 3nd chorus  
-----------------------------
-----------------------------
-------------5---------------
-7-----3-----5-x16-5---------
-7-x16-3-x16-3-----5-x16-----
-7-----3-----------5---------

guitar 2 chorus 
--------------------------------------------------
--------------------------------------------------
-9-----5-----5-----7/9-9-9/7-7-7/9/12-12-12-------
-7-x16-3-x16-5-x16-5/7-7-7/5-5-5/7/10-10-10-------
-------------3------------------------------------
--------------------------------------------------

guitar 1 outro
------------------------------------------
------------------------------------------
-10-9-5----12-10-9------------------------
-8--7-3-x4-10-8--7-x4---3-x16-7-x16-------
-8--7-3----10-8--7------3-----7-----------
------------------------3-----7-----------

guitar 2 outro (not sure about this as well)
-----------------------------------
-8---------13----------------------
--7-5--------12-10-over and over---
-----------------------------------
-----------------------------------
-----------------------------------


Now In Stores demo coming soon





Comments


Popular A Static Lullaby tabs & chords
A Song For A Broken Heart Bass Tabs
Lipgloss And Letdown Bass Tabs
Lipgloss And Letdown - Standard Tuning Bass Tabs
Love To Hate, Hate To Me 1 Bass Tabs
The Shooting Star That Destroyed Us 2 Bass Tabs
Hang Em Highchorus Rhythm Tabs
Let Go Tabs
Smooth Modulator Tabs
Smooth Modulator Intro Tabs
Toxic 3 Tabs


Song lyrics



↑ Back to top | Tablatures and chords are parodies/interpretations of the original songs. You may use it for private study, scholarship, research or language learning purposes only
© 2014 AZChords.com Contact us | Privacy policy | DMCA | Add/correct tabs | Request tabs | Top 50 tabs