>
 >
Charred Fields Of Snow

Charred Fields Of Snow Guitar Tabs

A Static Lullaby - Charred Fields Of Snow chords, tabs, tablatures, lyrics

Guitar lessons | Add/correct | Request | Top 50 tabs Artists:  A B C D E F G H I J K L M N O P Q R S T U V W X Y Z 0-9

Charred Fields Of Snow Guitar Tabs – A Static Lullaby

CD, Sheet music, Poster

Do you like Charred Fields Of Snow? Share with your friends now
Bass TabsTabs
here you go....another static lullaby song......buy the album..vist 

Drop d tuning

Guitar 1

Intro

e--------------------
b--------------------
g--11—11---9--9------
d—9----9—-9--9-------  repeat lots 
a—7---7----7--7------
d--------------------

e--------------------------------------------------------------
b--------------------------------------------------------------
g---------------------------------------------last time play---
d-5-5-5-5-5-5-5-5-7-7-7-7-7-7-7-7---------------------------10~
a-5-5-5-5-5-5-5-5-7-7-7-7-7-7-7-7---------------------------10~
d-5-5-5-5-5-5-5-5-7-7-7-7-7-7-7-7---------------------------10~

verse x 4

e------------------------------------------------------------------
b--------------------------------------------------------0---------
g-5~----------0----------0-------0---------0------------------0----
d-5~-------5--------5-------------------7---------7----------------
a-3~---3---------3----------3------5----------5------------5-------
d------------------------------------------------------------------

e---------------------------------------------------------------
b-------0----------0--------0------------0----------0-----------
g---------------------------------------------------------------
d----9---------9---------------------9-----------9--------9-----
a-7-------7------------7--------7------------7---------------7--
d---------------------------------------------------------------

pre chorus

“WOUNDED!!”

e-------------------------------
b-------------------------------
g-9---12-12-12-12-11-11-11-11---
d-9-----------------------------
a-7---10-10-10-10-9---9---9--9--
d-------------------------------


chorus

e-------------------------------------------------------------------------
b-------------------------------------------------------------------------
g--9-9-9-9--7-7-7-7---9-9-9-9--7-7-7-7--9-9-9-9--7-7-7-7------------------play twice
d--9-9-9-9--7-7-7-7---9-9-9-9--7-7-7-7--9-9-9-9--7-7-7-7--5-5-5-5-7-7-7-7-
a--7-7-7-7--5-5-5-5---7-7-7-7--5-5-5-5--7-7-7-7--5-5-5-5--5-5-5-5-7-7-7-7-
d---------------------------------------------------------5-5-5-5-7-7-7-7-


post chorus

e--------------
b--------------
g--7/9---------
d------------0~
a--5/7-------0~
d------------0~

bridge

e-----------------------------------------------------------------------------------
b-----------------------------------------------------------------------------------
g--7--9~----12p11-12p11-12p11-12p11--7--9-11-12-14---9-9-9-9-9-9-9-9-7-7-7-7-5-5-5-5 
d----------------------------------------------------9-9-9-9-9-9-9-9-7-7-7-7-5-5-5-5 
a----------------------------------------------------7-7-7-7-7-7-7-7-5-5-5-5-3-3-3-3     
d-----------------------------------------------------------------------------------
play the chord part four times

bridge part two 

e-----------------------------------
b-----------------------------------
g-5-5-5-5--4-4-4-4------------------
d-5-5-5-5--4-4-4-4--2-2-2-2--0-0-0-0  play four times
a-3-3-3-3--2-2-2-2--2-2-2-2--0-0-0-0
d-------------------2-2-2-2--0-0-0-0

screamy bit

e---------------------------
b---------------------------
g---------------------------
d-2x----2x-2x-2x---2--0----- after a few times add muted strumming 
a-2x----2x-2x-2x---2--0----- between the chord stabs
d-2x----2x-2x-2x---2--0-----

after that play the bridge part one chords and then go back to the intro.

Build up

e--------------
b--------------
g-5~~4~~9~~7~~-       last time play palm muted on the e and d chords
d-5~~4~~9~~7~~-
a-3~~2~~7~~5~~-
d--------------

for the remainder of the song just play bridge part two and then just the last two chords

Guitar 2

Intro

e--------------------
b--------<7>---------
g-<5>---------<5>----  the last harmonic is wrong I don’t know how he does it.
d--------------------
a--------------------
d--------------------

e--------------------------------------------------------------------------------
b--------------------------------------------------------------------------------
g-4-4-4-4-12-12-11-11-9-4-4-4-4-11-11-12-12-14----------------------------------- x2
d------------------------------------------------5-5-5-5-5-5-5-5-7-7-7-7-7-7-7-7- 
a-2-2-2-2-10-10--9--9-7-2-2-2-2-9--9--10-10-12---5-5-5-5-5-5-5-5-7-7-7-7-7-7-7-7-
d------------------------------------------------5-5-5-5-5-5-5-5-7-7-7-7-7-7-7-7-

verse

e-----------------------------------------------------------------------=-----
b-----------------------------------------------------------------------------
g-----------------------------------------------------------------------------
d-10~--10~--------------------------------------------------------------------
a-10~--10~--7/9-9-9-9\7-7-7-7/9-9-9-9\7-7-7-7/9-9-9-9\7-7-7-7/9-9-9-9\7-7-7-7/
d-10~--10~--------------------------------------------------------------------

e--------------------------------------------------------------------------------
b--------------------------------------------------------------------------------
g--------------------------------------------------------------------------------
d--------------------------------------------------------------------------------
a-10-10-10-10\9-9-9-9/10-10-10-10\9-9-9-9/12-12-12-1210-10-10-10\9-9-9-9\7-7-7-7-
d--------------------------------------------------------------------------------

/  the first guitar has started the verse again here
|
e-----------------------------------------------------------------------------------
b-----------------------------------------------------------------------------------
g-----------------------------------------------------------------------------------
d-----------------------------------------------------------------------------------
a-7-7-7-7/9-9-9-9\7-7-7-7/9-9-9-9\7-7-7-7/10-10-10-10\9-9-9-9/12-12-12-12\10-10-10--
d-----------------------------------------------------------------------------------

e-----------------------------------------------------
b-----------------------------------------------------
g-----------------------------------------------------
d-----------------------------------------------------
a-10/14-14-14-14\12-12-12-12/15-15-15-15\14-14-14-14--
d-----------------------------------------------------

pre chorus bit

e-------------------------------
b-------------------------------
g-9-9---16-16-16-16-14-14-14-14-
d-9-9---------------------------
a-7-7---14-14-14-14-12-12-12-12-
d-------------------------------

chorus same as guitar 1

post chorus/bridge

e--------------------------------
b--------------------------------
g-7-9-9-9-7-9-9-9-7-7-5-5-5-5-5-5
d-------------------------------- x4
a-5-7-7-7-5-7-7-7-5-5-3-3-3-3-3-3
d--------------------------------

then play the chords from the bridge for guitar 1

e-11b>-12-12p10p8------------12p10p8------------11b----- not to sure bout this part
b---------------------12p10p8---------12p10p8-----------
g-------------------------------------------------------
d-------------------------------------------------------
a-------------------------------------------------------
d-------------------------------------------------------

bridge part two

e----------------------------------------------------------------------------
b----------------------------------------------------------------------------
g-5-5-5-5-4-4-4-4----------------------5-5-5-5-7-7-7-7-----------------------
d---------------------2-2-2-2-0-0-0-0------------------------2-2-2-2-0-0-0-0-  x2
a-3-3-3-3-2-2-2-2-----2-2-2-2-0-0-0-0--3-3-3-3-5-5-5-5-------2-2-2-2-0-0-0-0-
d---------------------2-2-2-2-0-0-0-0------------------------2-2-2-2-0-0-0-0-

screamy bit I think there are three guitars here, but ill just tab two

e------------------------------------------
b------------------------------------------
g------------------------------------------ after a while just play the twiddly bit
d-2x-------4---2x-2x-2x--------4---2--0------
a-2x-2h3-------2x-2x-2x--2h3-------2--0------
d-2x-----------2x-2x-2x------------2--0------

while guitar 1 plays bridge part one again play:

e---------------------------------------
b---------------------------------------
g-9-9-9-9xxxx9-9-9-9xxxx7-7-7-7-5-5-5-5-
d---------------------------------------   x2
a-7-7-7-7xxxx7-7-7-7xxxx5-5-5-5-3-3-3-3-
d---------------------------------------

then play same chords as guitar 1

then play intro

build up
e-----------------------------------------------------------------------------------
b-----------------------------------------------------------------------------------
g-----------------------------------------------------------------------------------
d-----------------------------------------------------------------------------------
a-7/9-9-9-9\7-7-7-7/9-9-9-9\7-7-7-7/10-10-10-10\9-9-9-9/10-10-10-10\9-9-9-9/12-12-12
d-----------------------------------------------------------------------------------

e------------------------------------------------------------------
b------------------------------------------------------------------
g------------------------------------------------------------------
d------------------------------------------------------------------
a-12\10-10-10-10/14-14-14-14\12-12-12-12/15-15-15-15\14-14-14-14---
d------------------------------------------------------------------

e-----------------------------------------------
b-----------------------------------------------
g-----------------------------------------------
d-12-10-9-12-10-9-12-10-9-12-10-9--------------- play four times
a-----------------------------------12-10-9-7---
d-----------------------------------------------

e------------------------------------------------------------------------
b-/12~~\7--/12~/15~/17~\15~/20~\17~\15~\13~\12~\10~\8~\5~/8~\5~/8~/10~---
g------------------------------------------------------------------------
d------------------------------------------------------------------------
a------------------------------------------------------------------------
d------------------------------------------------------------------------





Comments


Popular A Static Lullaby tabs & chords
Scavenger Bass Tabs
The Shooting Star That Destroyed Us 2 Bass Tabs
We Go To Eleven Bass Tabs
A Sip Of Wine Chased With Cyanide 2 Tabs
Calmer Than You Are Tabs
Everybodys Got A Lil Fonz N Em Tabs
Rattlesnake! 1 Tabs
The Pledge Tabs
The Shooting Star That Destroyed Us All Tabs
Toxic 1 Tabs


Song lyrics



↑ Back to top | Tablatures and chords are parodies/interpretations of the original songs. You may use it for private study, scholarship, research or language learning purposes only
© 2014 AZChords.com Contact us | Privacy policy | DMCA | Add/correct tabs | Request tabs | Top 50 tabs