» » »

A Static Lullaby, A Sip Of Wine Chased With Cyan Tabs (ver.2)

Artists:  A B C D E F G H I J K L M N O P Q R S T U V W X Y Z # 

A Sip Of Wine Chased With Cyan Tabs (ver.2)

A Static Lullaby Tabs
Rating:
0/5 (0 votes)
A Sip Of Wine Chased With Cyan lessons Tabs too difficult? Try these video lessons and learn fast
                PLEASE RATE THIS TAB!


e-------------------------------------------------------------------------------
b-------------------------------------------7h8p7-----7h8p7-----7h8p7----7h8p7--
g---9^(1/2)--7~~------------7--9--7--7h9p7--------9---------9---------9--------9
d---------------------7--9------------------------------------------------------
a-----------------/9------------------------------------------------------------
d-------------------------------------------------------------------------------

e--------------- 10--------10-------10-------10-------10-----------------------
b--7h8p7----7--------8--7-----8--7-----8--7-----8--7-----8--7------------------
g--------9-------------------------------------------------------9^--9^PH----7~
d------------------------------------------------------------------------------
a------------------------------------------------------------------------------
d------------------------------------------------------------------------------

e-----------------10h12p10----------10h12p10-----------10h12p10----------------
b--------------------------10h12p10----------10h12p10-----------10h12p10-------
g--------------7~--------------------------------------------------------------
d--9-------7h9-----------------------------------------------------------------
a-----7h9----------------------------------------------------------------------
d------------------------------------------------------------------------------

e---10h12p10--------------------------------------------15-15-15-15-14-14-14-14
b------------10h12p10----------------------------------------------------------
g-----------------------11h12--11-----11h12--11--------------------------------
d---------------------------------12------------12\0---------------------------
a------------------------------------------------------------------------------
d------------------------------------------------------------------------------

e-12-12-12-12--10h12o10---10h12o10---12^--10h12p10---10~~~---------------------
b------------------------------------------------------------------------------
g------------------------------------------------------------------------------
d------------------------------------------------------------------------------
a------------------------------------------------------------------------------
d------------------------------------------------------------------------------
   Solo Rythm +half time feel "spoon out my heart"
e------------------------------------------------------------------------------
b------------------------------------------------------------------------------
g--------------------------5---------------------------------------------------
d--5-5-5-5-5-5-5-----7-----5---0-----------------------------------------------
a--5-5-5-5-5-5-5-----7-----3---0-----------------------------------------------
d--5-5-5-5-5-5-5-----7---------0-----------------------------------------------
   PM - - - - -
a static lullaby
ferret records
            
Submit corrections

comments powered by Disqus
↑ Back to top | A Static Lullaby Tabs for A Sip Of Wine Chased With Cyan. Lyrics for acoustic guitar and electric guitar. Tablatures and chords are parodies/interpretations of the original songs. You may use it for private study, scholarship, research or language learning purposes only