» » »

Annexation Of Puerto Rico Tabs (ver.1)

Artists:  A B C D E F G H I J K L M N O P Q R S T U V W X Y Z # 

Annexation Of Puerto Rico Tabs (ver.1)

A Static Lullaby
Rating:
3/5 (1 vote)

Hard to play? Try these video lessons and learn fast.
                -------------------------------------------------------------------------------
-------------------------------------------------------------------------------


Tuning: CGCFAD

Intro: (0:01-0:10)
Guitars 1 & 2
D-----------------------------------------|
A-----------------------------------------|
F-----------------------------------------|
C-2-0-2-3-2-0--2-0-2-3-2-0----333-222-3~--|
G-2-0-2-3-2-0--2-0-2-3-2-0-X3-333-222-3~--|
C-2-0-2-3-2-0--2-0-2-3-2-0----333-222-3~--|
play first part 3 times then play the 3 2 3 bit

Verse 1: (0:11-0:31)
Guitars 1 & 2
D-----------------------------------------|
A-----------------------------------------|
F-----------------------------------------|
C-2-0-2-3-2-0--2-0-2-3-2-0----333-222-3~--|
G-2-0-2-3-2-0--2-0-2-3-2-0-X3-333-222-3~--|
C-2-0-2-3-2-0--2-0-2-3-2-0----333-222-3~--|
same as intro play the whole thing 3 times

Pre-Chorus: (0:31-0:51)
D------------------------------------|
A------------------------------------|
F--10-(bout 20 times)-8-(8 times)----|
C--X-----------------------X---------|
G--8-----------------------6---------|
C------------------------------------|
play this 4 times


Chorus (0:51-1:12)
D------------------------------|
A------------------------------|
F---------5-------6-------8----|
C-3-------5-X8----6-X8----8-X8-|
G-3-X8----3-------4-------6----|
C-3----------------------------|
Note: guitar 1 does play some normal picking stuff but its too hard to hear so just play this


Pre-verse (1:12-1:24)
D-----------------------------------------------------|
A-----------------------------------------------------|
F-----------------------------------------------------|
C-2-0-2-3-2-0--2-0-2-3-2-0----333-222-3~--2-0-2-3-2-0-|
G-2-0-2-3-2-0--2-0-2-3-2-0-X3-333-222-3~--2-0-2-3-2-0-|
C-2-0-2-3-2-0--2-0-2-3-2-0----333-222-3~--2-0-2-3-2-0-|
wait for guitar 2 then play verse 2

Verse 2 (1:24-1:45)
D------------------------------------|
A------------------------------------|
F--10-(bout 20 times)-8-(8 times)----|
C--X-----------------------X---------|
G--8-----------------------6---------|
C------------------------------------|
play 4 times again

Pre-Chorus (1:45-1:51)
D--------------------------|
A--------------------------|
F--------------------------|
C-3~5~6~8~9~10~1010101010--|
G-3~5~6~8~9~10~1010101010--|
C-3~5~6~8~9~10~1010101010--|
10’s not 1’s and 0’s

Chorus (1:51-2:11)
D------------------------------|
A------------------------------|
F---------5-------6-------8----|
C-3-------5-X8----6-X8----8-X8-|
G-3-X8----3-------4-------6----|
C-3----------------------------|


Bridge 1(2:11-2:27)
D------------------------------------------------------------------|
A------------------------------------------------------------------|
F--13p12-(20 sumthing times)---------------------------------------|
C----------------------------333-333-333-333-666-666---------------|
G----------------------------333-333-333-333-666-666---------------|
C----------------------------333-333-333-333-666-666--6p5-6p5-6p5~-|
Note first part of the bridge is strange i think they use some kind special you gotta 
closely for it. Repeat last bit once

Bridge: 2(2:27-2:36)
D---------------------------------------------------------------|
A---------------------------------------------------------------|
F---------------------------------------------------------------|
C-333-333-333---------------333-333-333-333-666-666-------------|
G-333-333-333---------------333-333-333-333-666-666-------------|
C-333-333-333-10-8-6-5/6-3~-333-333-333-333-666-666-6p5-6p5-6p5-|

Bridge: 3(2:36-2:42)
D--------------------------|
A--------------------------|
F--------------------------|
C-3~5~6~8~9~10~1010101010--|
G-3~5~6~8~9~10~1010101010--|
C-3~5~6~8~9~10~1010101010--|
Note there is no break between bridge 3 and 2

Bridge 4: (2:42-3:18)
D-16-15-16-15-16-15-16-15-16-15-16-15-13~--18~-------|
A----------------------------------------------------|
F----------------------------------------------------|
C------------------------------------------------3-2-|
G------------------------------------------------3-2-|
C------------------------------------------------3-2-|
little bit between the 18 and the strumming is hard to heari think it is sumthing like 
15 13 16 15 13 17

Chorus (3:18-3:37)
D------------------------------|
A------------------------------|
F---------5-------6-------8----|
C-3-------5-X8----6-X8----8-X8-|
G-3-X8----3-------4-------6----|
C-3----------------------------|

Outro (3:37-3:46)
D-------------------------------------------------------|
A-------------------------------------------------------|
F-------------9--9--9--9--10--10--10--10-9--9--9--9--9--|
C-333-333-3~--X--X--X--X--X--X--X--X--X--X--X--X--X--X--|
G-333-333-3~--11-11-11-11-12-12-12-12-11-11-11-11-11-11-|
C-333-333-3~--------------------------------------------|
I will upload guitar 2 if this tab gets any hits
            
Hard to play? Try these video lessons and learn fast. | Correct




comments powered by Disqus
↑ Back to top | Tablatures and chords are parodies/interpretations of the original songs. You may use it for private study, scholarship, research or language learning purposes only