» » »

A Static Lullaby, Annexation Of Puerto Rico Bass tabs (ver.1)

Artists:  A B C D E F G H I J K L M N O P Q R S T U V W X Y Z # 

Annexation Of Puerto Rico Bass tabs (ver.1)

A Static Lullaby Tabs
 Rating:
4/5 (4 votes)
Annexation Of Puerto Rico lessons Tabs too difficult? Try these video lessons and learn fast
                Guitar Intro

Intro
F<---------------------3>
C<--------------------4->
G<-------------------1-->
D<-19/3-33-22-3-0-2-3--->

Pre-Verse
F<--------------------------> 3x
C<-------------------------->
G<-------------------------->
D<-2-0-2-3-2-0-2-0-2-3-2-0-0>

F<---------------3>
C<--------------4->
G<-------------1-->
D<33-22-3-0-2-3--->

F<--------------------------> 3x
C<-------------------------->
G<-------------------------->
D<-2-0-2-3-2-0-2-0-2-3-2-0-0>

F<---------------3---->
C<--------------4----->
G<-------------1------>
D<33-22-3-0-2-3---0-22>

Verse
F<-----------------------> 3x
C<------------222222/4--->
G<----------------------->
D<----22-222-----------22>

F<--------------------->
C<------------222222/4->
G<--------------------->
D<----22-222----------->

Chorus
F<---------------------------------->
C<---------------------------------->
G<--------44444444-55555555-77777777>
D<22222222-------------------------->

F<--------------9-------7-------9-->
C<------------99-9----77-7----99-9->
G<-99999999-77----7-55----5-77----7>
D<--------------------------------->

F<---------------------------------->
C<---------------------------------->
G<--------44444444-55555555-77777777>
D<22222222-------------------------->

F<--------------9-------7---7/13-13-14-13-14-13-->
C<------------99-9----77-7---------------------14>
G<-99999999-77----7-55----5---------------------->
D<----------------------------------------------->

Pre-Verse (1x)(Pause And A Second Of Guitar)

Verse (1x)

Pre-Chorus
F<------------------------->
C<-------------------222222>
G<----------2--4--5-------->
D<-2--4--5----------------->

Chorus (1x)

Breakdown
F<-------------------------------------> 2x
C<------------------------------------->
G<------------------------------------->
D<-2222-22-22-22-22-555-0-22222-0-2-0-0>

F<-------------------->
C<-------------------->
G<--------5-4-2------->
D<-2222-22-----5-4-2p0>

F<---------------------------------------->
C<---------------------------------------->
G<---------------------------------------->
D<-19/2222-22-22-22-22-555-0-22222-0-2-0-0>

F<------------------------->
C<-------------------222222>
G<----------2--4--5-------->
D<-2--4--5----------------->

Solo
F<------>
C<------>
G<------>
D<---22->

F<----------------> 4x
C<---11---9---7--->
G<-99---77--55---->
D<---------------->

F<---------------------->
C<---11---9------------->
G<-99---77-------------->
D<---------33-3-3-3-3-22>

Chorus (1x)

Outro
F<------------------------------------->
C<------------------------------------->
G<------------------------------------->
D<-2222-22-22-22-22-555-0-22222-0-2-0-0>
            
Submit corrections

comments powered by Disqus
↑ Back to top | A Static Lullaby Bass for Annexation Of Puerto Rico. Lyrics for acoustic guitar and electric guitar. Tablatures and chords are parodies/interpretations of the original songs. You may use it for private study, scholarship, research or language learning purposes only