» » »

Assembly Of Dust, Bootlegger's Advice Tabs (ver.1)

Artists:  A B C D E F G H I J K L M N O P Q R S T U V W X Y Z # 

Bootlegger's Advice Tabs (ver.1)

Assembly Of Dust Tabs
Rating:
0/5 (0 votes)
Bootlegger's Advice lessons Tabs too difficult? Try these video lessons and learn fast
                Bootlegger's Advice by Assembly of Dust (Live @ Paradise Rock Club Boston MA
Tune Down Half Step

Intro:
---------------------------------------------------------------------------|
---------------------------------------------------------------------------|
-----------------------------------------2---------------------------------|
-------------------------------------2h5-----------------------------------|
---------0-------0---0-------0---------------------0-------0---0------0----|
-5-0h3h5---0h3h5---3---0h3h5---0h3h5-------5-0h3h5---0h3h5---3---0h3h5-----|


------------|
------------|
-5b-2-----2-|
------2h5---|
------------|
------------|

Verse:

Use Variations of This Riff Throughout Verse (Scale of A)
                                       A                 E  E7/B
I make my money selling speakeasy gin defying logic and law

------------------------|
------------------------|
-2-------2-------2----2-|>>Verse Riff
-2-------2-------2----2-|
-0-------0-------0----0-|
---0h3h5---0h3h5----3---|

A         Cm                      D           Dm  A                 E
every time the blind pig comes to take his cut    he wears a sickly look on
    A
his jaw  ------------------------|
         ------------------------|
         -2-------2-------2----2-|
         -2-------2-------2----2-| >>this riff leads right to chorus
         -0-------0-------0----0-|
         ---0h3h5---0h3h5----3---|

Chorus:

D A               F#m             B        D              E
I know I've got a tarnished reputation but man I sure can think on my

A    Verse Riff  D A        F#m             B              D
toes             I know it's not the finest station in life but sometimes

E              A
that''s how it goes  (at end of this use variation from intro riff back in

back into verse)

Bridge to Solo:

G            F#m    D       E2          Verse Riffx2   G            F#m
Thats how it goes everybody tells me so                Thats how it goes

         D         E2          Verse Riffx2
you know everybody tells me so              .... Solo: Scale of A


another verse and chorus follow...there are different variations in verse and in chorus 
just improvise and use Scale of A
            

comments powered by Disqus
↑ Back to top | Assembly Of Dust Tabs for Bootlegger's Advice. Lyrics for acoustic guitar and electric guitar. Tablatures and chords are parodies/interpretations of the original songs. You may use it for private study, scholarship, research or language learning purposes only