» » »

Chinita Tabs (ver.1)

Artists:  A B C D E F G H I J K L M N O P Q R S T U V W X Y Z # 

Chinita Tabs (ver.1)

Assembly Language
Rating:
4/5 (6 votes)

Hard to play? Try these video lessons and learn fast.
                Hey Guuuuys!!! (courtesy of Carlo Alcala, Alger) hahahaha.. Stephen Obbus of Sogod, So.
again… Wohoooooo, Sogodnon ROCKS!!! Ahaha. Ako rah gi.improvise ag permirong himo ani…
man sad gud ag iya chords, kulangan lng.. ako g.utro para mas masayunan mong tanan..
man lgeh ko… hahaha! Ganahan man gud kos tuno, kinuha sa Nanka Shiawase OST sa ako fave
FLAME OF RECCA!!! Nyahahaha.. fyter pd ag lyrics.. hehehe, ktaw.anan pero ako uyab d man
hahaha, dako mag mata c Nikki Lousie Acuña… Pero LOVE japon nako pagau… nyahahah… cgeh,
09183865859, 09155499854… wooooo!

Tuning: Standard

Legends
*-palm muting
/ or \ or s-slide
p-pull off
h-hammer

Chords used:
D5-x577xx
G5-355xxx
A5-577xxx
F#m-244222
Bm-x24432
Em-022000


Intro:

Guitar 1

|--10-10-10-7-9-9/10---|
|----------------------|
|----------------------|
|----------------------|8x
|----------------------|
|----------------------|

Guitar 2

|-4/5-5-5----2/3-5-5---|
|----------------------|
|----------------------|
|----------------------|8x
|----------------------|
|----------------------|

Verse 1

Guitar 1 & 2

Palm muted:
D5-G5-A5 (4x)
Ako karon nageskwela
Daghan klasmeyt nga amega
Pwerte pa jud nilang gwapaha
May mistisa ug chinita

Pre-Chorus 1:
Guitar 1: Do the strumming
Guitar 2: Plucking

F#m-Bm-F#m-Bm-Em-F#m-G5-A5
Kay lage estudyante
Pirmi jud sa library
Abi nimo mag-study
Kay diay magbantay sa mangagi

Chorus:
Guitar 1 & 2
D5-F#m-Bm-G5-A5 (2x)
Inday, nagtabisay akong laway
Tungod sa matahom mong panagway
In-love jud ko sa klasmeyt ko nga chinita
Kay nindot siya mo-porma
Labi na kung mo-smile pa sa ako-a

Verse 2
(Do the same chords in Verse 1)
Kung mag-hi ko sa iyaha
Sige lang jud siyag pandeadma
Wala siya kahibalo nga ako neseryoso

Pre-Chorus 2:
(Do the same chords in Pre-Chorus 1)
Sa gugma kong tinud-anay
Hapit na gani ko magpakamatay
Maangkon lang ang gugma mo
Ug kana ikalipay ko

Interlude:


Guitar 1 (1st 2 measures)
    1st               2nd
|-----------|------------------------|
|-----------|------------------------|
|-7--4--6---|-7-7-7-5h6p5s4h5-6------|
|-----------|------------------------|
|-----------|------------------------|
|-----------|------------------------|

|----------------------|
|----------------------|
|-7777777--444--666----|
|----------------------|6x
|----------------------|
|----------------------|

Guitar 2

|-4/5-5-5----2/3-5-5---|
|----------------------|
|----------------------|
|----------------------|8x
|----------------------|
|----------------------|

After the second measure, the bass or guitar 3 comes with D5-G5-A5 (6x) together with
drums.

Repeat Chorus 3x

Mao ranah!!! Just listen to the song for proper timing…
Pls. rate… tnx!!!
            
Hard to play? Try these video lessons and learn fast. | Correct




comments powered by Disqus
↑ Back to top | Tablatures and chords are parodies/interpretations of the original songs. You may use it for private study, scholarship, research or language learning purposes only