» » »

Start Worryin Star Warrian Tabs (ver.1)

Artists:  A B C D E F G H I J K L M N O P Q R S T U V W X Y Z # 

Start Worryin Star Warrian Tabs (ver.1)

A Smile From The Trenches
Rating:
0/5 (0 votes)

Tabs too difficult? Try these video lessons and learn fast.
                Standard Tuning

Made for my, Jesuzation.



Cover of this song made for my:


e---------------------------------------------------------------------------|
B---------------------------------------------------------------------------|
G--------------------15--------------------------15-------------------------|
D---17~---17~---15~-------13--12--13~----17--18------18--17--15--13--12-----|
A---------------------------------------------------------------------------|
E---------------------------------------------------------------------------|


e---------------------------------------------------------------------------|
B---------------------------------------------------------------------------|
G---------------------------------------------------------------------------|
D-----------------------12--13--15--12--13--15--15~--17~--------------------|
A------13b--13~-------------------------------------------------------------|
E---------------13~--15~----------------------------------------------------|


e---------------------------------------------------------------------------|
B---------------18~----18--18--20~--20~--18~--20--18------------------------|
G---17~--19--20-----20-------------------------------20--17~--17h20--15~----|
D---------------------------------------------------------------------------|
A---------------------------------------------------------------------------|
E---------------------------------------------------------------------------|


e---------------------------------------------------------------------------|
B---------------------------------------------------------------------------|
G------------------------------------------------------------16--17--19--17~|
D---18--17--15----15--17--------------15--17--18--15--17--18----------------|
A--------------18----------15--17--18---------------------------------------|
E---------------------------------------------------------------------------|


| h  hammer-on
| b  bending
| ~  vibrato
            
Tabs too difficult? Try these video lessons and learn fast.




comments powered by Disqus
↑ Back to top | Tablatures and chords are parodies/interpretations of the original songs. You may use it for private study, scholarship, research or language learning purposes only