» » »

A Smile From The Trenches, Start Worryin Star Warrian Bass tabs (ver.1)

Artists:  A B C D E F G H I J K L M N O P Q R S T U V W X Y Z # 

Start Worryin Star Warrian Bass tabs (ver.1)

A Smile From The Trenches Tabs
Rating:
0/5 (0 votes)
Start Worryin Star Warrian lessons Tabs too difficult? Try these video lessons and learn fast
                This is my first tab so take it easy; an overall relatively easy song.
The solo fill may be a little off.

intro
G|---------------------------------------------------------------------------|
D|---------------------------------------------------------------------------|
A|---------------------------------------------------------------------------|
D|15\--0-0-x-x-0-0-x-x-3-3-3x-3x-3-3-3x-3x 5-5-5x-5x-5-5-5x-5x77777-55555-3-0| x2

verse 1
G|---------------------------------------------------------------------|
D|---------------------------------------------------------------------|
A|-------------------3--------------------5----------------------------|
D|00000-0-0-0-0000034--55555-5-5-5-5555546-77777-7-7-55555-5-5-3333-3-3|

G|---------------------------------------------------------------------|
D|---------------------------------------------------------------------|
A|--------------3--------------5---------------------------------------|
D|00000000000034-55555555555546-77777777-55555555-33333333-00000000----|

pre-chorus
G|---------------------------------------------------------------------|
D|---------------------------------------------------------------------|
A|---------------------------------------------------------------------|
D|0-0-xx-0-0-xx-3-3-3x3x-3-3-3x3x-5-5-5x5x-5-5-5x5x-3-3-3-3-2-2-2-2----|

G|------|
D|------|
A|------|
D|15\---|

chorus
G|---------------------------------------------------------------------|
D|---------------------------------------------------------------------|
A|---------------------------------------------------------------------|
D|3-3333-3-3333-5-5555-5-5555-0-0000-0000-7777-5555-0-0000-0-0000---(0)| x4
                      ^
                   first time.

breakdown
G|-------------------------------------------|
D|-------------------------------------------|
A|---------------------------97530243--------|
D|00000-0-0-00000-000-x3-000---------0-------| x2
              ^
           fast.

verse 2
G|---------------------------------------------------------------------|
D|---------------------------------------------------------------------|
A|--------------3--------------5---------------------------------------|
D|00000000000034-55555555555546-77777777-55555555-33333333-00000000----| x2

pre-chorus
G|----|
D|----|
A|----|
D|15\-|

chorus
G|---------------------------------------------------------------------|
D|---------------------------------------------------------------------|
A|---------------------------------------------------------------------|
D|3-3333-3-3333-5-5555-5-5555-0-0000-0000-7777-5555-0-0000-0-0000---(0)| x4

*BREAK*

solo
G|-------------------------------------------------------------------------|
D|-------------------------------------------------------------------------|
A|-------------------------------------------------------------------------|
D|3-3333-3-3333-5-5555-5-5555-0-0000-0-0000-7-7777-55555-00000-2-2222-2-222|


solo 2
G|---------------------------------------------------------------|
D|---------------------------------------------------------------|
A|---------------------------------------------------------------|
D|0-0-0-0-555555555-333333333-7777-00000000-5555555-333333-------|



bass solo- same as first chorus.



chorus
G|---------------------------------------------------------------------|
D|---------------------------------------------------------------------|
A|---------------------------------------------------------------------|
D|3-3333-3-3333-5-5555-5-5555-0-0000-0000-7777-5555-0-0000-0-0000---(0)| x4

outro
G|---------|
D|---------|
A|---------|
D|3~~~0~~~~|
            

comments powered by Disqus
↑ Back to top | A Smile From The Trenches Bass for Start Worryin Star Warrian. Lyrics for acoustic guitar and electric guitar. Tablatures and chords are parodies/interpretations of the original songs. You may use it for private study, scholarship, research or language learning purposes only