» » »

A Skylit Drive, Xo Skeleton Tabs (ver.1)

Artists:  A B C D E F G H I J K L M N O P Q R S T U V W X Y Z # 

Xo Skeleton Tabs (ver.1)

A Skylit Drive Tabs
Rating:
0/5 (0 votes)
Hard to play? Try these video lessons and learn fast.
                XO Skeleton 

C#G#C#F#A#D#

Intro
GTR1
|------|
|------|
|-7----|
|--x16-|
|-5----|
|------|

GTR2 - Enters
|-----|
|-----|
|-9---|
|--x8-|
|-7---|
|-----|

Verse
GTR1
|-------------------8-8-8-------8-8-----|-5-0---------5-0---------5-0-----|----|
|-------------6-6-6-------6-6-6-----6-6-|-----6-6---------6-6---------6-6-|----|
|-7-----7-7-7---------------------------|---------5-7---------5-7---------|----|
|--x12----------------------------------|---------------------------------|----|
|-5-------------------------------------|---------------------------------|-x2-| x2
|---------------------------------------|---------------------------------|----|

GTR2
|-------------------8-8-8-------8-8-----|-5-0---------5-0---------5-0-----|----|
|-------------6-6-6-------6-6-6-----6-6-|-----6-6---------6-6---------6-6-|----|
|-9-----7-7-7---------------------------|---------5-7---------5-7---------|----|
|--x12----------------------------------|---------------------------------|----|
|-7-------------------------------------|---------------------------------|-x-| x2
|---------------------------------------|---------------------------------|----|

Breakdown
Both
|---------------------------------------------------------------|
|---------------------------------------------------------------|
|-----------------------------------------------------3---------|
|-----------------------------------------------0h3h5---2-------|
|-0-0-----0-0--0-0-0-0--0-0-0-0--0-0-8-8--0h5h7-----------0h5h7-|
|-0-0-----0-0--0-0-0-0--0-0-0-0--0-0-8-8------------------------|

----------------------------------------|
----------------------------------------|
----------------------------------------|
----------------------------------------|
-0-0--0-0-0-0--0-0-0-0--0-0-8-8-8-7-7-7-|
-0-0--0-0-0-0--0-0-0-0--0-0-8-8-8-7-7-7-|

Then
GTR1
|----------------------------------------|
|----------------------------------------|
|----------------------------------7-7-7-|
|----------------------------------------|
|-0-0--0-0-0-0--0-0-0-0--0-0-8-8-8-5-5-5-|
|-0-0--0-0-0-0--0-0-0-0--0-0-8-8-8-------|

GTR2
|----------------------------------------|
|----------------------------------------|
|----------------------------------9-9-9-|
|----------------------------------------|
|-0-0--0-0-0-0--0-0-0-0--0-0-8-8-8-7-7-7-|
|-0-0--0-0-0-0--0-0-0-0--0-0-8-8-8-------|

Chorus
GTR1
|--------------------------------|-----------------------|
|--------------------------------|-----------------------|
|--------------------------------|-----------------------|
|-0----3----10----x-x-10----8----|-0----8----3----10-----|
|-0-x8-3-x8-10-x8-x-x-10-x4-8-x6-|-0-x8-8-x8-3-x8-10-x12-|
|-0----3----10----x-x-10----8----|-0----8----3----10-----|

Repeat Verse
Breakdown
Both
|-------------------------------------------------|----------------------------|
|-------------------------------------------------|----------------------------|
|----------------------------------------3--------|----------------------------|
|----------------------------------0h3h5---2------|----------------------------|
|-0-0-0-0-----0-0-0--0-0-0-0-0h5h7-----------05h7-|-0-0-0--0-0-0-0-8-8-8-7-7-7-|
|-0-0-0-0-----0-0-0--0-0-0-0----------------------|-0-0-0--0-0-0-0-8-8-8-7-7-7-|

|-------------------------------------|------------------------------------|
|-------------------------------------|------------------------------------|
|----------------------------3--------|------------------------------------|
|----------------------0h3h5---2------|------------------------------------|
|-0-0-0--0-0-0-0-0h5h7-----------05h7-|-0-0-0--0-0-0-0-8-8-8-7-7-7-3-3-7-7-| 
|-0-0-0--0-0-0-0----------------------|-0-0-0--0-0-0-0-8-8-8-7-7-7-3-3-7-7-|

Then
GTR1
|-------------------------------------|----------------------------|
|-------------------------------------|----------------------------|
|----------------------------3--------|----------------------7-7-7-|
|----------------------0h3h5---2------|----------------------------|
|-0-0-0--0-0-0-0-0h5h7-----------05h7-|-0-0-0--0-0-0-0-8-8-8-5-5-5-| 
|-0-0-0--0-0-0-0----------------------|-0-0-0--0-0-0-0-8-8-8-------|

GTR2
|-------------------------------------|----------------------------|
|-------------------------------------|----------------------------|
|----------------------------3--------|----------------------9-9-9-|
|----------------------0h3h5---2------|----------------------------|
|-0-0-0--0-0-0-0-0h5h7-----------05h7-|-0-0-0--0-0-0-0-8-8-8-7-7-7-| 
|-0-0-0--0-0-0-0----------------------|-0-0-0--0-0-0-0-8-8-8-------|

Repeat Chorus
Bridge
Both
|-----------------------------------|
|-----------------------------------|
|---------------------2----5----5---|
|-----3-------2---------3--3-x8--x8-|
|-0-0---5-0-0---3-3-3------1----3---| x2
|-0-0-----0-0-----3-3---------------|

Then
GTR1
|-----------------------------------------------------------|
|-----------------------------------------------------------|
|-----------------------------------------------------------|
|-12------3------10------8------12------8------3------10----|
|-12-x4---3-x4---10-x4---8-x4---12-x4---8-x4---3-x4---10-x4-|
|-12------3------10------8------12------8------3------10----|


Repeat Chorus
Outro
Both
|-----------------------------------|
|-----------------------------------|
|---------------------2----5----5---|
|-----3-------2---------3--3-x8--x8-|
|-0-0---5-0-0---3-3-3------1----3---| x2
|-0-0-----0-0-----3-3---------------|
            

comments powered by Disqus
↑ Back to top | A Skylit Drive Tabs for Xo Skeleton. Lyrics for acoustic guitar and electric guitar. Tablatures and chords are parodies/interpretations of the original songs. You may use it for private study, scholarship, research or language learning purposes only