» » »

This Isn't The End Bass tabs (ver.1)

Artists:  A B C D E F G H I J K L M N O P Q R S T U V W X Y Z # 

This Isn't The End Bass tabs (ver.1)

A Skylit Drive
Rating:
0/5 (0 votes)

Tabs too difficult? Try these video lessons and learn fast.
                +++++++++++++++++++++++++++++++++++++
| A Skylit Drive- This Isnt The End |
+++++++++++++++++++++++++++++++++++++


"There's just so much to be said..."


Tuning: Drop D (DADG)



Intro
1.
G|-----------------|
D|-----------------|
A|-7-7-7-7-7-7-7-7-|
D|-----------------|

Verse
"Starting off to face the day..."
2.
G|-------------------------------------------------------------------------|
D|---------------555---------------------------------555-------------------|
A|-7-7-7-7-7-7-7-----3-3-3-3-3-3-3-555-7-7-7-7-7-7-7-----3-3-3-3-------555-|
D|-------------------------------------------------------------------------|

"Torment my mind with the thoughts..."
3.
G|-------------------------------------------------------------------------|
D|---------------555---------------------------------555-------------------|
A|-7-7-7-7-7-7-7-----3-3-3-3-3-3-3-555-7-7-7-7-7-7-7-----3~----------------|
D|-------------------------------------------------------------------------|

Chorus
"There's just so much to be said..."
4.
G|----------------------------------------------------------------------------|
D|----------------------------------------------------------------------------|
A|-----------3333333----------------555-----------3333333---------------------|
D|-22222222-2--------55555555--555------22222222-2--------55555555--555--555--|

Outro
5.
G|-----------------|
D|-----------------|
A|-7-7-7-7-7-7-7-7-|
D|-----------------|

Verse
"For a second I felt so brave..."
6.
G|-------------------------------------------------------------------------|
D|---------------555---------------------------------555-------------------|
A|-7-7-7-7-7-7-7-----3-3-3-3-3-3-3-555-7-7-7-7-7-7-7-----3-3-3-3-----------|
D|-------------------------------------------------------------------------|

"Technicalities set you off the stage..."
7.
G|-------------------------------------------------------------------------------|
D|---------------555---------------------------------555-----------5------5------|
A|-7-7-7-7-7-7-7-----3-3-3-3-3-3-3-555-7-7-7-7-7-7-7-----3~----------5~-----5~---|
D|-------------------------------------------------------------------------------|

Chorus
"There's just so much to be said..."
8.
G|----------------------------------------------------------------------------|
D|----------------------------------------------------------------------------|
A|-----------3333333----------------555-----------3333333---------------------|--x2
D|-22222222-2--------55555555--555------22222222-2--------55555555--555--555--|

Outro
9.
G|-----------------------------------------------------------------|
D|-----------------------------------------------------------------|
A|-----------------------------------------------------------------|
D|-2~--------22222222x---/14~----22222222x--------22222222x--------|

Bridge
10.
G|-----------------------------------------------------------------|
D|-----------------------------------------------------------------|
A|-----------3~----------------------------------3~----------------|
D|-2p0h2-555----5-2p0h2--2p0h2x--------2p0h2-555----5-00000x-2p0h2-|

11.
G|-------------------------------------------------|
D|-------------------------------------------------|
A|-----------3~-------------------------3~---------|
D|-2p0h2-555----5-2p0h2-2p0h2-2p0h2-555----5-2p0h2-|

Chorus
"There's just so much to be said..."
12.
G|----------------------------------------------------------------------------|
D|----------------------------------------------------------------------------|
A|-----------3333333----------------555-----------3333333---------------------|--x2
D|-22222222-2--------55555555--555------22222222-2--------55555555--555--555--|

Outro
13.
G|---------------------------------------------------------------------------------|
D|---------------------------------------------------------------------------------|
A|---------------/3333---------------/3333---------------/3333---------------/3333-|
D|-2~-2-2222~----------2~-2-2222~----------2~-2-2222~----------2~-2-2222-----------|

14.
G|-------------------|
D|-------------------|
A|-------------------|
D|-2~----------------|

Please rate thanks!!


Lyrics:

Starting off to face the day 
Seconds away from a life with endless
Torment my mind with the thoughts of a beginning
To show you just what I feel 
To decipher what is real

There's just so much to be said
So much is running through my head
In a time staggered on the end
Maybe now can we pretend? 

For a second I felt so brave
Flowing through fault lines
Wearing on my mind
Weathering
Pulsating
Technicalities set you off the stage and when you see me now and then
There will be no exchange of hands
Scratch the plans



+++++++++++++++++++++++++++++++++
| Raileff                       |
+++++++++++++++++++++++++++++++++
            
Tabs too difficult? Try these video lessons and learn fast.




comments powered by Disqus
↑ Back to top | Tablatures and chords are parodies/interpretations of the original songs. You may use it for private study, scholarship, research or language learning purposes only