>
 >
See You Around

See You Around Guitar Tabs

A Skylit Drive - See You Around chords, tabs, tablatures, lyrics

Guitar lessons | Add/correct | Request | Top 50 tabs Artists:  A B C D E F G H I J K L M N O P Q R S T U V W X Y Z 0-9

See You Around Guitar Tabs – A Skylit Drive

CD, Sheet music, Poster

Do you like See You Around? Share with your friends now
Bass TabsTabs

This is a pretty crazy song. Hopefully they'll play it live one day. I studied 
both guitar channels 
very closely and this is the closest I could get. Some parts are hardly audible, 
but trust me, they're there. 
My first tab. Enjoy!

T 10th fret (used in some parts of the tab)
~ let ring
/ slide up
\ slide down
. palm mute
#. stocatto
p pull-off
h hammer-on
t tap


Tuning: Drop C#
-Tune all strings one-half step down, then tune the top string down another whole step. 

Intro

   |-----------------------------------------------------------------8p5------------------8p5-----|
   |----------------------------------------------------------------------------------------------|
 / |----------------------------------------------------------------------------------------------| \
|  |--12------8----------10-----7------8~~--------------------------------------------------------|  |
|  |--12------8----------10-----7------8~~---------------8-12-10-3-0----------8-12-10-3-0---------|  |
|  |--12------8----------10-----7------8~~-------------8--------------------8---------------------|  |
|                                                      .                    .                        |
|                                                                                                    |
|                                                                                                    |
|  |--10------------------------------------10---12---10------------------------------------------|  |
|  |-----5-6/10---8-8\5--5-6--5-6--5-5-5h6-----8----8----8----------------5h6---------------5h6---|  |
|  |------------9---------------------------------------------------------------------------------|  |
 \ |----------------------------------------------------------------------------------------------| /
   |---------------------------------------------------------0-10-8-5-3-0------0-10-8-5-3-0-------|
   |----------------------------------------------------------------------------------------------|



   |--------------------------------------------------------------------8p5-----------------------|
   |----------------------------------------------------------------------------------------13----|
 / |------------------------------------------------------------------------------------------14--| \
|  |-12-------3----------10-----7-----8~~---------------------------------------------------------|  |
|  |-12-------3----------10-----7-----8~~-----------------8-12-T---0-----------8-12-T---0---------|  |
|  |-12-------3----------10-----7-----8~~---------------8--------T-----------8--------T-----------|  |
|                                                       .                    .                       |
|                                                                                                    |
|                                                                                                    |
|  |--10-----------------------------------10---12---10-------------------------------------------|  |
|  |-----5-6-6/10---8-5--5-6--5-6--5-5-5h6----8----8----8---------------5h6---------------5h6-----|  |
|  |--------------9-------------------------------------------------------------------------------|  |
 \ |----------------------------------------------------------------------------------------------| /
   |-------------------------------------------------------0-10-8-5-3-0-----0-10-8-5-3-0----------|
   |----------------------------------------------------------------------------------------------|


Verse 
("what if you could go back... What if you could go back?")
   |-------12----------------12----------------12----------------12-----------------|
   |-13------13--13----13------13--13----13------13--13----13------13--13-----------|
 / |---14------14--14----14------14--14----14------14--14----14------14--14---------| \
|  |-----15----------------15----------------15----------------15-------------------|  |
|  |--------------------------------------------------------------------------------|  |
|  |--------------------------------------------------------------------------------|  |
|     . . .   . . . . . . . .   . . . . . . . .   . . . . . . . .   . . . .            |
|                                                                                      |
|                                                                                      |
|  |--------------------------------------------------------------------------------|  |
|  |-13--{STRUM}-------------------------13/--{STRUM}-------------------------------|  |
|  |-14--{STRUM}-------------------------14/--{STRUM}------/19--{STRUM}-------------|  |
 \ |-------------------------------------------------------/19--{STRUM}-------------| /
   |--------------------------------------------------------------------------------|
   |--------------------------------------------------------------------------------|


("...Erase me, i'm a figment of imagination")
   |-------12-------------------12------------------12------------------------------|
   |-13-------13---13----13-------13---13-----13-------13----13---------------------|
 / |---14--------14--14-----14------14---14-----14--------14----14------------------| \
|  |-----15-------------------15------------------15----------------0---0-----------|  |
|  |----------------------------------------------------------------0---0-----------|  |
|  |----------------------------------------------------------------0---0-----------|  |
|     . . .  . . . . . . . . . .   . . . . . . . . .  . . . . .                        |
|                                                                                      |
|                                                                                      |
|  |--------------------------------------------------------------------------------|  |
|  |-15--{STRUM}------------------------------13--{STRUM}---------------------------|  |
|  |-17--{STRUM}------------------------------14--{STRUM}---------------------------|  |
 \ |----------------------------------------------------------------0---0-----------| /
   |----------------------------------------------------------------0---0-----------|
   |----------------------------------------------------------------0---0-----------|



Pre-Chorus 
("I know you can hear me!...")
   |------------------------------------------------------------------------------|
   |------------------------------------------------------------------------------|
 / |------------------------------------------------------------------------------| \
|  |--0---0---0-0-0--0~.----------------------------------------------------------|  |
|  |--0---0---0-0-0--0~.----------------------------------------------------------|  |
|  |--0---0---0-0-0--0~.----------------------------------------------------------|  |
|             . . .                                                                  |
|                                                                                    |         
|                                                                                    |             
|  |------------------------------------------------------------------------------|  |
|  |------------------------------------------------------------------------------|  |
|  |------------------------------------------------------------------------------|  |
 \ |--7-10-7-10-7-10-5-7-5-7-5-7-3-5-3-5---7---7-10-7-10-5-7-5-7-5-7-3-5-3-5------| /
   |-----------------------------------------8------------------------------------|
   |------------------------------------------------------------------------------|


("...I know you can see me breathing!)
   |------------------------------------------------------------------------------|
   |------------------------------------------------------------------------------|
 / |------------------------------------------------------------------------------| \
|  |--0---0---0-0-0--0~.----------------------------------------------------------|  |
|  |--0---0---0-0-0--0~.----------------------------------------------------------|  |
|  |--0---0---0-0-0--0~.----------------------------------------------------------|  |
|                                                                                 |
|                                                                                    |         
|                                                                                    |             
|  |------------------------------------------------------------------------------|  |
|  |------------------------------------------------------------------------------|  |
|  |------------------------------------------------------------------------------|  |
 \ |--7-10-7-10-7-10-5-7-5-7-5-7-3-5-3-5---7--7-10-7-10-7-10-5-7-5-7-3-5-3-5------| /
   |-----------------------------------------8------------------------------------|
   |------------------------------------------------------------------------------|


Refrain (instrumental)
   |----------------------------------------------------------------------|
   |--6-------------------------------------------------------------------|
 / |-----3~---------------------------------------------------------------| \
|  |---------5h7-5h7------------------------------------------------------|  |
|  |-----------------5h8-5h8----------------------------------------------|  |
|  |----------------------------------------------------------------------|  |
|                                                                            | 
|                                                                            |        
|                                                                            |          
|  |--10-----12h13-12h13-13h15-13h15--------------------------------------|  |
|  |----------------------------------------------------------------------|  |
|  |-----10~--------------------------------------------------------------|  |
 \ |----------------------------------------------------------------------| /
   |----------------------------------------------------------------------|
   |----------------------------------------------------------------------|


Chorus ("That place where I knew that I could find you, I think I'll make a run for it")
   |-----------------------------------------------------------------------------------|           
   |-----------------------------------------------------------------------------------|   
 / |---------------------------------[play eighth notes here]--------------------------| \
|  |--0-00--3-3//88-888-10----10.---10.---10.---10.---10.---10.---10.------------------|  |
|  |--0-00--3-3//88-888-10----10.---10.---10.---10.---10.---10.---10.------------------|  |
|  |--0-00--3-3//88-888-10----10.---10.---10.---10.---10.---10.---10.------------------|  |
|                           1  +  2  +  3  +  4  +  1  +  2  +  3  +  4  +                |
|                                                                                         |
|  |-----------------------------------------------------------------------------------|  |
|  |--6--------------------------------------------------------------------------------|  |
|  |----5-----------------------[eighth notes]-----------------------------------------|  |
 \ |--------7-0h3p0h3h5p0---5-5--5-5-5-5-5-5-------------------------------------------| /
   |------------------------3-3--3-3-3-3-3-3-------------------------------------------|
   |-----------------------------------------------------------------------------------|      


("and if I don't find you there, I'll search forever")
   |----------------------------------------------------------------------------------|           
   |----------------------------------------------------------------------------------|   
 / |----------------------------------------------------------------------------------| \
|  |--0-00--3-3//88-888-10---10.---10.---10.---10.---10.---(10.)----------------------|  |
|  |--0-00--3-3//88-888-10---10.---10.---10.---10.---10.---(10.)----7h8p7-------------|  |
|  |--0-00--3-3//88-888-10---10.---10.---10.---10.---10.---(10.)----------------------|  |
|                          1  +  2  +  3  +  4  +  1  +  2                               |
|                                                                                        |
|  |----------------------------------------------------------------------------------|  |
|  |--6-------------------------------------------------------------------------------|  |
|  |----5-----------------------------------------------------------------------------|  |
 \ |--------7-0h3p0h3h5------------7h8p7-------7h8------------------------------------| /
   |------------------------------8-----8----8-----7h8p7------------------------------|
   |----------------------------------------------------------------------------------|    
                                1 +

("and if i don't see you there....")
   |----------------------------------------------------------------------------------|           
   |----------------------------------------------------------------------------------|   
 / |----------------------------T-T-T-T-14-12----(12)12-12-12-14-9-t-12---------------| \
|  |--0-00--3-3//88-888---------x-x-x-x--x--x-----(x)-x--x--x--x-x/x--x---------------|  |
|  |--0-00--3-3//88-888---------8-8-8-8-12\10----(10)10-10-10-12-7/8-10---------------|  |
|  |--0-00--3-3//88-888---------------------------------------------------------------|  |
|                                                                                        |
|                                                                                        |       
|  |----------------------------------------------------------------------------------|  |
|  |--6-------------------------------------------------------------------------------|  |
|  |----5----------------------T-T-T-T-14-12----(12)12-12-12-14-9-t-12----------------|  |
 \ |--------7-0h3p0h3h5--------x-x-x-x--x--x-----(x)-x--x--x--x-x/x--x----------------| /
   |---------------------------8-8-8-8-12\10----(10)10-10-10-12-7/8 10----------------|
   |----------------------------------------------------------------------------------|      
       
("I'll search forever...")
   |----------------------------------------------------------------------------------|           
   |----------------------------------------------------------------------------------|   
 / |----------------------------------------------------------------------------------| \
|  |--0---3-3//8-8-10----------10.---10.---10.---10.---10.---10.---10.----------------|  |
|  |--0---3-3//8-8-10----------10.---10.---10.---10.---10.---10.---10.----------------|  |
|  |--0---3-3//8-8-10----------10.---10.---10.---10.---10.---10.---10.----------------|  |
|                           1  +  2  +  3  +  4  +  1  +  2  +  3  +  4  +               |
|                                                                                        |     
|  |--0-0-----------------------------------------------------------------------------|  |
|  |--6-6-----------------------------------------------------------------------------|  |
|  |------5---------------------------------------------------------------------------|  |
 \ |----------3//88-888-10--------10.---10.---10.---10.---10.---10.---10.-------------| /
   |----------3//88-888-10--------10.---10.---10.---10.---10.---10.---10.-------------|   
   |----------3//88-888-10--------10.---10.---10.---10.---10.---10.---10.-------------|   
                                1  +  2  +  3  +  4  +  1  +  2  +  3  +  4  +  


Post-Chorus Breakdown

   |-------------------------------0--------------------------------------|
   |-------7h10---------------6----3--------------------------------------|
 / |------------7-5--------------5----5-----------------------------------| \
|  |--5h8-----------5h8------------------------5-//--8-\\\----------------|  |
|  |-------------------------------------------5-//--8-\\\----------------|  |
|  |-------------------------------------------5-//--8-\\\----------------|  |
|                                                                            |       
|                                                                            |         
|  |----------------------------------------------------------------------|  |
|  |----------------------------------------------------------------------|  |
|  |----------------------------------------------------------------------|  |
 \ |-------------------------------------15-15--------8p7-----------------| /
   |--0-5-8-10-13-12-8p5----------13-12-------0--5h7----------------------|
   |----------------------------------------------------------------------|
                                              . 


   |-------------------------------0--------------------------------------|
   |-------7h10---------------6----3--------------------------------------|
 / |------------7-5--------------5----5-----------------------------------| \
|  |--5h8-----------5h8------------------------5-//--8-\\\----------------|  |
|  |-------------------------------------------5-//--8-\\\----------------|  |
|  |-------------------------------------------5-//--8-\\\----------------|  |
|                                                                            |       
|                                                                            |         
|  |----------------------------------------------------------------------|  |
|  |----------------------------------------------------------------------|  |
|  |----------------------------------------------------------------------|  |
 \ |------------------------------------15-14-12-----8p7------------------| /
   |--0-5-8-10-13-12-8p5----------13-12----------5h7----------------------|
   |----------------------------------------------------------------------|


Instrumental Break: 
{Just the drums, bass, and keyboard}
- *Both guitars*

|---------------------------------------------------------------------|
|---------------------------------------------------------------------|
|---------------------------------------------------------------------|
|---------------------------------------------------------------------|
|---------------------------------------------------------------------|
|---------------------------------------------------------------------|

|---------------------------------------------------------------------|
|---------------------------------------------------------------------|
|---------------------------------------------------------------------|
|-----------------------------------------------------------0---0-----|
|-----------------------------------------------------------0---0-----|
|-----------------------------------------------------------0---0-----|


"I don't see you upside down, 
   |------------------------------------------------------------------|
   |------------------------------------------------------------------|
 / |------------------------------------------------------------------| \
|  |--3-0-0-0---0-0--3-8-8-8---8-8------------------------------------|  |
|  |--3-0-0-0---0-0--3-8-8-8---8-8------------------------------------|  |
|  |--3-0-0-0---0-0--3-8-8-8---8-8------------------------------------|  |
|                                                                        |
|                                                                        |      
|  |------------------------------------------------------------------|  |
|  |------------------------------------------------------------------|  |
|  |------------------------------------------------------------------|  |
 \ |--3-0-0-0---0-0--3-8-8-8---8-8------------------------------------| /
   |--3-0-0-0---0-0--3-8-8-8---8-8------------------------------------|
   |--3-0-0-0---0-0--3-8-8-8---8-8------------------------------------|


I'm outside of my body"
   |------------------------------------------------------------------|
   |------------------------------------------------------------------|
 / |------------------------------------------------------------------| \
|  |---t7p0t3-(x8)--t10p3t5-(x4)--0h2h3-------0h2h3-5-----------------|  |
|  |-----------------------------------0h3h5--------------------------|  |
|  |------------------------------------------------------------------|  |
|                                                                        |
|                                                                        |            
|  |------------------------------------------------------------------|  |
|  |------------------------------------------------------------------|  |
|  |------------------------------------------------------------------|  |
 \ |---3-3-3-3---3-3--------------------------------------------------| /
   |---3-3-3-3---3-3----14p0h10-(x4)----------------------------------|
   |---3-3-3-3---3-3-------------------3--0--5--8-7-------------------|


"I don't see you upside down, 
   |------------------------------------------------------------------|
   |------------------------------------------------------------------|
 / |------------------------------------------------------------------| \
|  |--3-0-0-0---0-0--3-8-8-8---8-8------------------------------------|  |
|  |--3-0-0-0---0-0--3-8-8-8---8-8------------------------------------|  |
|  |--3-0-0-0---0-0--3-8-8-8---8-8------------------------------------|  |
|                                                                        |
|                                                                        |             
|  |------------------------------------------------------------------|  |
|  |------------------------------------------------------------------|  |
|  |------------------------------------------------------------------|  |
 \ |--3-0-0-0---0-0--3-8-8-8---8-8------------------------------------| /
   |--3-0-0-0---0-0--3-8-8-8---8-8------------------------------------|
   |--3-0-0-0---0-0--3-8-8-8---8-8------------------------------------|


oh my, why are you inside out?"
   |------------------------------------------------------------------|
   |------------------------------------------------------------------|
 / |------------------------------------------------------------------| \
|  |--t7p0t3-(x8)--t10p3t5-(x4)--0h2h3---------0h2h3-5----------------|  |
|  |----------------------------------0h3h5---------------------------|  |
|  |------------------------------------------------------------------|  |
|                                                                        |
|                                                                        |              
|  |------------------------------------------------------------------|  |
|  |------------------------------------------------------------------|  |
|  |------------------------------------------------------------------|  |
 \ |---3-3-3-3---3-3--------------------------------------------------| /
   |---3-3-3-3---3-3----14p0h10-(x4)----------------------------------|
   |---3-3-3-3---3-3-------------------2-0-3-5------------------------|


(and then this little riff again.)
   |----------------------------------------------------------------------|
   |--6-------------------------------------------------------------------|
 / |----------------------------------------------------------------------|  \
|  |----8~---5h7-5h7------------------------------------------------------|   |
|  |-----------------5h8-5h8----------------------------------------------|   |
|  |----------------------------------------------------------------------|   |
|                                                                             | 
|                                                                             |        
|                                                                             |          
|  |--10-----12h13-12h13-13h15-13h15--------------------------------------|   |
|  |----------------------------------------------------------------------|   |
|  |-----10~--------------------------------------------------------------|   |
 \ |----------------------------------------------------------------------|  /
   |----------------------------------------------------------------------|
   |----------------------------------------------------------------------|


Chorus 
("That place where I knew that I could find you, I think I'll make a run for it")
   |-----------------------------------------------------------------------------------|           
   |-----------------------------------------------------------------------------------|   
 / |---------------------------------[play eighth notes here]--------------------------| \
|  |--0-00--3-3//88-888-10----10.---10.---10.---10.---10.---10.---10.------------------|  |
|  |--0-00--3-3//88-888-10----10.---10.---10.---10.---10.---10.---10.------------------|  |
|  |--0-00--3-3//88-888-10----10.---10.---10.---10.---10.---10.---10.------------------|  |
|                           1  +  2  +  3  +  4  +  1  +  2  +  3  +  4  +                |
|                                                                                         |
|  |-----------------------------------------------------------------------------------|  |
|  |--6--------------------------------------------------------------------------------|  |
|  |----5-----------------------[eighth notes]-----------------------------------------|  |
 \ |--------7-0h3p0h3h5p0---5-5--5-5-5-5-5-5-------------------------------------------| /
   |------------------------3-3--3-3-3-3-3-3-------------------------------------------|
   |-----------------------------------------------------------------------------------|      


("and if I don't find you there, I'll search forever")
   |----------------------------------------------------------------------------------|           
   |----------------------------------------------------------------------------------|   
 / |----------------------------------------------------------------------------------| \
|  |--0-00--3-3//88-888-10---10.---10.---10.---10.---10.---(10.)----------------------|  |
|  |--0-00--3-3//88-888-10---10.---10.---10.---10.---10.---(10.)----7h8p7-------------|  |
|  |--0-00--3-3//88-888-10---10.---10.---10.---10.---10.---(10.)----------------------|  |
|                          1  +  2  +  3  +  4  +  1  +  2                               |
|                                                                                        |
|  |----------------------------------------------------------------------------------|  |
|  |--6-------------------------------------------------------------------------------|  |
|  |----5-----------------------------------------------------------------------------|  |
 \ |--------7-0h3p0h3h5------------7h8p7-------7h8------------------------------------| /
   |------------------------------8-----8----8-----7h8p7------------------------------|
   |----------------------------------------------------------------------------------|    
                                1 +

("and if i don't see you there....")
   |----------------------------------------------------------------------------------|           
   |----------------------------------------------------------------------------------|   
 / |----------------------------T-T-T-T-14-12----(12)12-12-12-14-9-t-12---------------| \
|  |--0-00--3-3//88-888---------x-x-x-x--x--x-----(x)-x--x--x--x-x/x--x---------------|  |
|  |--0-00--3-3//88-888---------8-8-8-8-12\10----(10)10-10-10-12-7/8-10---------------|  |
|  |--0-00--3-3//88-888---------------------------------------------------------------|  |
|                                                                                        |
|                                                                                        |       
|  |----------------------------------------------------------------------------------|  |
|  |--6-------------------------------------------------------------------------------|  |
|  |----5----------------------T-T-T-T-14-12----(12)12-12-12-14-9-t-12----------------|  |
 \ |--------7-0h3p0h3h5--------x-x-x-x--x--x-----(x)-x--x--x--x-x/x--x----------------| /
   |---------------------------8-8-8-8-12\10----(10)10-10-10-12-7/8 10----------------|
   |----------------------------------------------------------------------------------|      
       
(I'll search foreverrrrrrrrrrrr....")
   |----------------------------------------------------------------------------------|           
   |----------------------------------------------------------------------------------|   
 / |----------------------------------------------------------------------------------| \
|  |--0---3-3//8-8-10----------10.---10.---10.---10.---10.---10.---10.----------------|  |
|  |--0---3-3//8-8-10----------10.---10.---10.---10.---10.---10.---10.----------------|  |
|  |--0---3-3//8-8-10----------10.---10.---10.---10.---10.---10.---10.----------------|  |
|                           1  +  2  +  3  +  4  +  1  +  2  +  3  +  4  +               |
|                                                                                        |     
|  |--0-0-----------------------------------------------------------------------------|  |
|  |--6-6-----------------------------------------------------------------------------|  |
|  |------5---------------------------------------------------------------------------|  |
 \ |----------3//88-888-10--------10.---10.---10.---10.---10.---10.---10.-------------| /
   |----------3//88-888-10--------10.---10.---10.---10.---10.---10.---10.-------------|   
   |----------3//88-888-10--------10.---10.---10.---10.---10.---10.---10.-------------|   
                                1  +  2  +  3  +  4  +  1  +  2  +  3  +  4  +  


                       ("errrrrrrrrrrr")
                       ---------------------------------------------------------------|
                       ---------------------------------------------------------------|
                       ---------------------------------------------------------------|
                       ---10-10-10-10-10-10-10-10---10-10-10-10-10-3-3----------------|
                       ---10-10-10-10-10-10-10-10---10-10-10-10-10-3-3----------------|
                       ---10-10-10-10-10-10-10-10---10-10-10-10-10-3-3----------------|
                                                                   . .
Breakdown Chorus 
("and if I don't see you there, I'll see you around")

   |---(slow downstrums)--------------------------------------------------------------|
   |----------------------------------------------------------------------------------|
 / |--7-7-7-7-------------------------------------------------------------------------| \
|  |--7-7-7-7--3-3-3-3--8-8-8-8-8-8-8-8--3-3-3-3-3-3-3-3--5-5-5-5-5-5-5-5-------------|  |
|  |--5-5-5-5--3-3-3-3--8-8-8-8-8-8-8-8--3-3-3-3-3-3-3-3--3-3-3-3-3-3-3-3-------------|  |
|  |-----------3-3-3-3--8-8-8-8-8-8-8-8--3-3-3-3-3-3-3-3--2-2-2-2-2-2-2-2-------------|  |
|                                                                                        |       
|                                                                                        |         
|  |--3->>>>--------------------------------------------------------------------------|  |
|  |--6->>>>--------------------------------------------------------------------------|  |
|  |--------------------14------12---------7-T-12---8-T-----------------14-14-14------|  |
 \ |---------------------x-(x5)--x-(x3)----x-x--x---x-x--10-10-10-10-10--x--x--x------| /
   |----------5-8-0-----12------10---------5-8-10---5-8--10-10-10-10-10-12-12-12------|
   |-----------------------------------------------------10-10-10-10-10---------------|

("and if I don't see you there, I'll see you around")
   |----------------------------------------------------------------------------------|
   |----------------------------------------------------------------------------------|
 / |--7-7-7-7-------------------------------------------------------------------------| \
|  |--7-7-7-7--3-3-3-3--8-8-8-8-8-8-8-8--3-3-3-3-3-3-3-3--5-5-5-5-5-5-5-5-------------|  |
|  |--5-5-5-5--3-3-3-3--8-8-8-8-8-8-8-8--3-3-3-3-3-3-3-3--3-3-3-3-3-3-3-3-------------|  |
|  |-----------3-3-3-3--8-8-8-8-8-8-8-8--3-3-3-3-3-3-3-3--2-2-2-2-2-2-2-2-------------|  |
|                                                                                        |
|                                                                                        |         
|  |----------------------------------------------------------------------------------|  |
|  |--66------------------------------------------------------------------------------|  |
|  |-----55-77-----------14------12-------7-T-12---8-T-----------------T-T-T----------|  |
 \ |-----------7----------x-(x5)--x-(x3)--x-x--x---x-x--10-10-10-10-10-x-x-x----------| /
   |--------------5-8-0--12------10-------5-8-10---5-8--10-10-10-10-10-8-8-8----------|
   |----------------------------------------------------10-10-10-10-10----------------|
                                                           ritard

End on D-minor.
   |-------------------------------------------------------------|
   |-------------------------------------------------------------|
 / |-------7~~~~~~~----------------------------------------------| \
|  |-------7~~~~~~~----------------------------------------------|  |
|  |-------5~~~~~~~----------------------------------------------|  |
|  |-------0~~~~~~~----------------------------------------------|  |
|                                                                   |
|                                                                   |              
|  |-------------------------------------------------------------|  |
|  |-------------------------------------------------------------|  |
|  |-------7~~~~~~~----------------------------------------------|  |
 \ |-------7~~~~~~~----------------------------------------------| /
   |-------5~~~~~~~----------------------------------------------|
   |-------------------------------------------------------------|





Comments


Popular A Skylit Drive tabs & chords
238 Bass Tabs
Ability To Create A War Bass Tabs
According To Colombus Bass Tabs
Past The Love The Memories Bass Tabs
All It Takes For Your Dreams To Come True Chords
A Reason For Broken Wings Tabs
Ability To Create A War Tabs
Drow The City Tabs
Wires And The Concept Of Breathing 1 Tabs
A Reason For Broken Wings Ukulele


Song lyrics



↑ Back to top | Tablatures and chords are parodies/interpretations of the original songs. You may use it for private study, scholarship, research or language learning purposes only
© 2014 AZChords.com Contact us | Privacy policy | DMCA | Add/correct tabs | Request tabs | Top 50 tabs