» » »

A Skylit Drive, See You Around Bass tabs (ver.1)

Artists:  A B C D E F G H I J K L M N O P Q R S T U V W X Y Z # 

See You Around Bass tabs (ver.1)

A Skylit Drive Tabs
 Rating:
4/5 (4 votes)
See You Around lessons Tabs too difficult? Try these video lessons and learn fast
                Bass Tab

Tuning: Db Ab Db Gb

\ slide down
~ let note ring
/ slide up
h hammer on

Intro 
|----------------------------------------------------------------------|
|----------------------------------------------------------------------|
|----------------------------------------------------------------------|
|--12--8-8--10-10--7-7--8~\\\--///8~~~~--------------------------------|

|----------------------------------------------------------------------|
|----------------------------------------------------------------------|
|----------------------------------------------------------------------|
|--12--3-3--10-10--7-7--8~\\\--///8~~~~--------------------------------|

Verse
|----------------------------------------------------------------------|
|----------------------------------------------------------------------|
|----------------------------------------------------------------------|
|--8\\\\--{rest}--10-10-10-10-10-10-10-10-12-12-12-12-10-10-10-10------|

|----------------------------------------------------------------------|
|----------------------------------------------------------------------|
|--8888888888888888----------------------------------------------------|
|-------------------88888888--0--0-------------------------------------|

|----------------------------------------------------------------------|
|----------------------------------------------------------------------|
|----------------------------------------------------------------------|
|--0--0-000-0~~-----------------------0--0-000-0~~---------------------|

Pre-Chorus
|----------------------------------------------------------------------|
|----------------------------------------------------------------------|
|--5~~--8--8h10-8h10---------------------------------------------------|
|----------------------------------------------------------------------|

Chorus
|----------------------------------------------------------------------|
|----------------------------------------------------------------------|
|--5-55----------------------------------------------------------------|
|--------3-3-8-8-888-10-10-10-10-10-10-10-10-10-10-10-10-10-10-10-10---|

|----------------------------------------------------------------------|
|----------------------------------------------------------------------|
|--5-55----------------------------------------------------------------|
|--------3-3-8-8-888-10-10-10-10-10-10-10-10-10-10-10-10-10-10-10-10---|

|----------------------------------------------------------------------|
|----------------------------------------------------------------------|
|--------------------8-88-8--7777777-----------------------------------|
|--0-00--3-3-8-8-888---------------------------------------------------|

|----------------------------------------------------------------------|
|----------------------------------------------------------------------|
|--5-55----------------------------------------------------------------|
|--------3-3-8-8-888-10-10-10-10-10-10-10-10-10-10-10-10-10-10-10-10---|

Post Chorus
|----------------------------------------------------------------------|
|----------------------------------------------------------------------|
|----------------------------------------------------------------------|
|--0-000-000-000-3-3-333-333-333-8-------------------------------------|

|----------------------------------------------------------------------|
|----------------------------------------------------------------------|
|----------------------------------------------------------------------|
|--0-000-000-000-3-3-333-333-333-8-----0-000---------------------------|

Fun Bass Part
|----------------------------------------------------------------------|
|----------------------------------------------------------------------|
|-----------3-3--5-5--8-8--5-5-----------1-1--3-3--5-5--8-8--5-5-------|
|--0--0--0----------------------3--3--3--------------------------------|

|----------------------------------------------------------------------|
|----------------------------------------------------------------------|
|-----------1-1--3-3--5-5--8-8--5-5------------------------------------|
|--0--0--0---------------------------3--3--3--3--0--0------------------|

Breakdown (play this section twice)
|----------------------------------------------------------------------|
|----------------------------------------------------------------------|
|----------------------------------------------------------------------|
|--3-0-0-0-----0--0-----3-8-8-8-----8--8-------------------------------|

|----------------------------------------------------------------------|
|----------------------------------------------------------------------|
|----------------------------------------------------------------------|
|--3-3-3-3-----3--3-----2-2-2-2-----0-0h2h3-0-5------------------------|

Pre-Chorus
|----------------------------------------------------------------------|
|----------------------------------------------------------------------|
|--5~~--8--8h10-10-10--------------------------------------------------|
|----------------------------------------------------------------------|

Chorus
|----------------------------------------------------------------------|
|----------------------------------------------------------------------|
|--5-55----------------------------------------------------------------|
|--------3-3-8-8-888-10-10-10-10-10-10-10-10-10-10-10-10-10-10-10-10---|

|----------------------------------------------------------------------|
|----------------------------------------------------------------------|
|--5-55----------------------------------------------------------------|
|--------3-3-8-8-888-10-10-10-10-10-10-10-10-10-10-10-10-10-10-10-10---|

|----------------------------------------------------------------------|
|----------------------------------------------------------------------|
|--------------------88888888--77777777--------------------------------|
|--0-00--3-3-8-8-888---------------------------------------------------|

|----------------------------------------------------------------------|
|----------------------------------------------------------------------|
|--5-55----------------------------------------------------------------|
|--------3-3-8-8-888-10-10-10-10-10-10-10-10-10-10-10-10-10-10-10-10---|


|----------------------------------------------------------------------|
|----------------------------------------------------------------------|
|----------------------------------------------------------------------|
|--10-10-10-10-10-10-10-10-10-10-10-10-10--3-3-------------------------|

Last Chorus (play slow, heavy downstrums)
|--------------------------------------------------------------------------|
|--------------------------------------------------------------------------|
|--5--5-5-----------------------------------------------3-3-3-3--3-3-3-3---|
|----------3-3-3-3--8-8-8-8--8-8-8-8--3-3-3-3--3-3-3-3---------------------|

|--------------------------------------------------------------------------|
|--------------------------------------------------------------------------|
|--5-5-5-5-----------------------------------------------3-3-3-3--3-3-3-3--|
|-----------3-3-3-3--8-8-8-8--8-8-8-8--3-3-3-3--3-3-3-3--------------------|


|--------------------------------------------------------------------------|
|--------------------------------------------------------------------------|
|--5~~~~~~~~---------------------------------------------------------------|
|--------------------------------------------------------------------------|

*end*
            
Submit corrections

comments powered by Disqus
↑ Back to top | A Skylit Drive Bass for See You Around. Lyrics for acoustic guitar and electric guitar. Tablatures and chords are parodies/interpretations of the original songs. You may use it for private study, scholarship, research or language learning purposes only