» » »

A Skylit Drive, Hey Nightmare, Where Did You Get Them Teeth? Tabs (ver.3)

Artists:  A B C D E F G H I J K L M N O P Q R S T U V W X Y Z # 

Hey Nightmare, Where Did You Get Them Teeth? Tabs (ver.3)

A Skylit Drive Tabs
 Rating:
4/5 (4 votes)
Hey Nightmare, Where Did You Get Them Teeth? lessons Tabs too difficult? Try these video lessons and learn fast
                A SKYLIT DRIVE - HEY NIGHTMARE, WHERE DID YOU GET THEM TEETH

WEELL THIS SONG IS FREAKIN AWESOME, SOP HERES THE TAB ^^ DROP D.

INTRO - VERSE
RUUUUN.....                      FOR YOUR LIFE.....
|------------------------------------------------------------------| /
|------------------------------------------------------------------| /
|-------------------------------9-9-9-9-9-9-9-9-9-9-9-9-9-9-9------| /
|-4-4-4-4-4-4-4-4-4-4-4-4-4-4-4-X-X-X-X-X-X-X-X-X-X-X-X-X-X-X------| /
|-4-4-4-4-4-4-4-4-4-4-4-4-4-4-4-7-7-7-7-7-7-7-7-7-7-7-7-7-7-7------| /
|-2-2-2-2-2-2-2-2-2-2-2-2-2-2-2------------------------------------| /
                                                                     /
PULL YOUR..                                                          / [x2]
|------------------------------------------------------------------| /
|------------------------------------------------------------------| /
|-------7-7/---------7-7/------------------------------------------| /
|-2-2---7-7/---2-2---7-7/---2-2-2----------------------------------| /
|-2-2---5-5/---2-2---5-5/---2-2-2----------------------------------| /
|-0-0----------0-0----------0-0-0-----4-0-5-0-7-5-4----------------| /
  . .          . .          . . .                                    /


BY THIS I KNOW....
|-----------------------------------------------------------| /
|-----------------------------------------------------------| /
|-11-11-11-11-9-9-9-9-13--13--13-13---14--14--14--14--------| / [x2]
|-X--X--X--X--X-X-X-X-X---X---X---X---X---X---X---X---------| /
|-9--9--9--9--7-7-7-7-11--11--11--11--12--12--12--12--------| /
|-----------------------------------------------------------| /

ON A QUEST..
|---------------------------------------------------------------------|
|-12-10-9-0-12-10-9-0-12-10-9-0-12-10-9-0-----------------------------|
|-------------------------------------------9-9-9-9-------------------|
|-------------------------------------------X-X-X-X-----7---9-7-6-----|
|-------------------------------------------7-7-7-7--9-9--9-----------|
|---------------------------------------------------------------------|

IT'S NO SURPRISE...
|-----------------------------------------------------------| /
|-----------------------------------------------------------| /
|-11-11-11-11-9-9-9-9-13--13--13-13---14--14--14--14--------| / [x2]
|-X--X--X--X--X-X-X-X-X---X---X---X---X---X---X---X---------| /
|-9--9--9--9--7-7-7-7-11--11--11--11--12--12--12--12--------| /
|-----------------------------------------------------------| /

YOUR MOUTH...
|-------------------------------------------------------------------------|
|-12-10-9-0-12-10-9-0-12-10-9-0-12-10-9-0------------9-9-9-9-10-10-10-10--|
|-------------------------------------------9-9-9-9--X-X-X-X-X--X--X--X---|
|-------------------------------------------X-X-X-X--6-6-6-6-7--7--7--7---|
|-------------------------------------------7-7-7-7-----------------------|
|-------------------------------------------------------------------------|

CHORUS
CUT THROUGH...
|-------------------------------------------------------------------------|
|--------12-12-12---------10-10-10--------12-12-12------------10-10-10----|
|-7-7-7--X--X--X---9-9-9--X--X--X--9-9-9--X--X--X---11-11-11--X--X--X-----|
|-7-7-7--9--9--9---9-9-9--7--7--7--9-9-9--9--9--9---X--X--X---7--7--7-----|
|-5-5-5------------7-7-7-----------7-7-7------------9--9--9---------------|
|-------------------------------------------------------------------------|

|------------------7-0------------------------------7-0-----------------|
|-7-0-9-0-10-0-9-0-----10-0-9-10-9---0-9-0-10-0-9-0-----10-0-9-10-9-----|
|----------------------------------9------------------------------------|
|-----------------------------------------------------------------------|
|-----------------------------------------------------------------------|
|-----------------------------------------------------------------------|

CUT THROUGH...
|-------------------------------------------------------------------------|
|--------12-12-12---------10-10-10--------12-12-12------------10-10-10----|
|-7-7-7--X--X--X---9-9-9--X--X--X--9-9-9--X--X--X---11-11-11--X--X--X-----|
|-7-7-7--9--9--9---9-9-9--7--7--7--9-9-9--9--9--9---X--X--X---7--7--7-----|
|-5-5-5------------7-7-7-----------7-7-7------------9--9--9---------------|
|-------------------------------------------------------------------------|

|------------------------------|
|------------------------------|
|------------------------------|
|--4-4-4-------------4-4-4-----|
|--4-4-4-------------4-4-4-----|
|--2-2-2-------------2-2-2-----|
   . . .             . . . 

VERSER
SHEE.....
|---------------------------------------------------------| /
|---------------------------------------------------------| /
|--7-------14-13-9-11-14-11-------------------------------| /
|--7-------X--X--X-X--X--X--------4-4--4-4---4-4--4-4-----| / [x3]
|--5-------12-11-7-9--12-9--------4-4--4-4---4-4--4-4-----| /
|---------------------------------2-2--2-2---2-2--2-2-----| /
                                  . .        . .            /

|-------------------------------------------------------------| 
|-------------------------------------------------------------| 
|--7-------14-13-9-11-14-11-----------------------------------| 
|--7-------X--X--X-X--X--X--------4-4--4-4---4-4--4-4----4----| 
|--5-------12-11-7-9--12-9--------4-4--4-4---4-4--4-4----4----| 
|---------------------------------2-2--2-2---2-2--2-2----2----| 
                                  . .        . .            


FORGIVE ME....
|-----------------------------------------------------------| /
|-----------------------------------------------------------| /
|-11-11-11-11-9-9-9-9-13--13--13-13---14--14--14--14--------| / [x2]
|-X--X--X--X--X-X-X-X-X---X---X---X---X---X---X---X---------| /
|-9--9--9--9--7-7-7-7-11--11--11--11--12--12--12--12--------| /
|-----------------------------------------------------------| /


|-------------------------------------------------------------------------|
|-12-10-9-0-12-10-9-0-12-10-9-0-12-10-9-0------------9-9-9-9-10-10-10-10--|
|-------------------------------------------9-9-9-9--X-X-X-X-X--X--X--X---|
|-------------------------------------------X-X-X-X--6-6-6-6-7--7--7--7---|
|-------------------------------------------7-7-7-7-----------------------|
|-------------------------------------------------------------------------|

CHORUS
CUT THROUGH...
|-------------------------------------------------------------------------|
|--------12-12-12---------10-10-10--------12-12-12------------10-10-10----|
|-7-7-7--X--X--X---9-9-9--X--X--X--9-9-9--X--X--X---11-11-11--X--X--X-----|
|-7-7-7--9--9--9---9-9-9--7--7--7--9-9-9--9--9--9---X--X--X---7--7--7-----|
|-5-5-5------------7-7-7-----------7-7-7------------9--9--9---------------|
|-------------------------------------------------------------------------|

|------------------7-0------------------------------7-0-----------------|
|-7-0-9-0-10-0-9-0-----10-0-9-10-9---0-9-0-10-0-9-0-----10-0-9-10-9-----|
|----------------------------------9------------------------------------|
|-----------------------------------------------------------------------|
|-----------------------------------------------------------------------|
|-----------------------------------------------------------------------|

CUT THROUGH...
|-------------------------------------------------------------------------|
|--------12-12-12---------10-10-10--------12-12-12------------10-10-10----|
|-7-7-7--X--X--X---9-9-9--X--X--X--9-9-9--X--X--X---11-11-11--X--X--X-----|
|-7-7-7--9--9--9---9-9-9--7--7--7--9-9-9--9--9--9---X--X--X---7--7--7-----|
|-5-5-5------------7-7-7-----------7-7-7------------9--9--9---------------|
|-------------------------------------------------------------------------|


WHATS LEFT FOR YOUU
|-----------------|
|-----------------|
|-----------------|
|--4-4-4----------|
|--4-4-4----------|
|--2-2-2----------|
   . . .             

YOUU...
|--------------------------------| /
|--------------------------------| /
|-------------------7-7-7-7------| /
|--4-4-4----4-4-----7-7-7-7------| / [x4]
|--4-4-4----4-4-----5-5-5-5------| /
|--2-2-2----2-2------------------| /
   . . .    . .                    /

CONSERVE..
|------------------------------------------------------------| /
|------------------------------------------------------------| /
|------------------------------------------------------------| /
|--4-4-4-4-4-4-4-4-4-4-4-4-------------4-4-4-4-4-4-4-4-------| / [x2]
|--4-4-4-4-4-4-4-4-4-4-4-4-------------4-4-4-4-4-4-4-4-------| /
|--2-2-2-2-2-2-2-2-2-2-2-2-------------2-2-2-2-2-2-2-2-------| /
   . . . . . . . . . . . .             . . . . . . . .         /


YOUR LIFE IS MY...
|-14---17-16---17-16---14-17-14---17-16---14-17-19-17--------| /
|-------------------17-----------------17--------------------| /
|------------------------------------------------------------| /
|------------------------------------------------------------| / [x2]
|------------------------------------------------------------| /
|------------------------------------------------------------| /

|-14-14-14-14-14-17-17-17-17-17-16-16-16-16-16-12-12-12-12-12-10-10-10--|
|-----------------------------------------------------------------------|
|-----------------------------------------------------------------------|
|-----------------------------------------------------------------------|
|-----------------------------------------------------------------------|
|-----------------------------------------------------------------------|

OUTHRO
FOR GODS SAKE...
|----------------------------------------------------------------| /
|----------------------------------------------------------------| /
|-------------------7-7-7-7-7-7-7-7-7---6----6----6----6----6/---| /
|-4-4-4-4-4-4-4-4-4-7-7-7-7-7-7-7-7-7----7-7--7-7--7-7--7-7------| /
|-4-4-4-4-4-4-4-4-4-5-5-5-5-5-5-5-5-5----------------------------| /
|-2-2-2-2-2-2-2-2-2----------------------------------------------| /
                                         . .  . .  . .  . .        /
                                                                   / [x3]
|----------------------------------------------------------------| /
|--------------------10-10-10-10-10-9--9--9--9--9----------------| /
|-2-2-2-2-2-2-2-2-2--X--X--X--X--X--X--X--X--X--X----------------| /
|-2-2-2-2-2-2-2-2-2--7--7--7--7--7--6--6--6--6--6----------------| /
|-0-0-0-0-0-0-0-0-0----------------------------------------------| /
|----------------------------------------------------------------| /


|----------------------------------------------------------------------| 
|---------------------------------------------------10--9--------------| 
|--------------7-----6----6----6----6----6/--2------X---X--------------| 
|----4---------7------7-7--7-7--7-7--7-7-----2------7---6---------4----| 
|----4---------5-----------------------------0--------------------4----|
|----2------------------------------------------------------------2----| 
                      . .  . .  . .  . .     



AND THATS ALL!! CHECK THE VIDEO


THANX FREAKY WI ^^  KEEP ROCKIN!
            
Submit corrections

comments powered by Disqus
↑ Back to top | A Skylit Drive Tabs for Hey Nightmare, Where Did You Get Them Teeth?. Lyrics for acoustic guitar and electric guitar. Tablatures and chords are parodies/interpretations of the original songs. You may use it for private study, scholarship, research or language learning purposes only