>
 >
Hey Nightmare, Where Did You Get Them Teeth?

Hey Nightmare, Where Did You Get Them Teeth? Guitar Tabs

A Skylit Drive - Hey Nightmare, Where Did You Get Them Teeth? chords, tabs, tablatures, lyrics

Guitar lessons | Add/correct | Request | Top 50 tabs Artists:  A B C D E F G H I J K L M N O P Q R S T U V W X Y Z 0-9

Hey Nightmare, Where Did You Get Them Teeth? Guitar Tabs – A Skylit Drive

CD, Sheet music, Poster

Do you like Hey Nightmare, Where Did You Get Them Teeth?? Share with your friends now
Bass TabsChordsTabsTabs v2Tabs v3
----------------------------------------------------------------------------
       Hey Nightmare, Where Did You Get Them Teeth - A Skylit Drive
----------------------------------------------------------------------------

Tuning: Drop Dizzle Fo Shizzle!

  "RUUUUUUUUUUUUUUUN!"
e|-------------------------------------------------------------whole-------|
B|-------------------------------------------------------------section-----|
G|----------------------7---------55----55-----------------------X2--------|
D|-22222222222222222----7-X32--00-55-00-55-00-0~--400-400-5----------------|
A|-22222222222222222----5------00-33-00-33-00-0~--400-400-5----------------|
D|-22222222222222222-----------00----00----00-0~--400-400-5----------------|
                               ..    ..    ..
Play again, but on the third and fourth times, don't play the open D's and hold the C's 
longer.

"Cut through the limbs..."
e|-------------------------------------------------------------------------|
B|-------------------------------------------5-0-7-0-8-0-7-0-8-0-10-0-8-0-7|
G|-55---14---77---12---77---14---55---12-11--------------------------------|
D|-xx---x----xx---x----xx---x----xx---x--x---------------------------------|
A|-33-/-12-\-55-/-10-\-55-/-12-\-33-/-10-9---------------------------------|
D|-------------------------------------------------------------------------|
  play twice, but the second time don't play the b string part.

"She's watching the sky burn..."
e|-------------------------------------------------------------------------|
B|-------------------------------------------------------------------------|
G|--5~--12--11--7--9~------X?----------------------------------------------|
D|--5~--x---x---x--x-------------------------------------------------------|
A|--3~--10\-9-\-5-/7~------------------------------------------------------|
D|-------------------------------------------------------------------------|

"Forgive me!" (figure out the strumming on your own, sorry)
e|-------------------------------------------------------------------------|
B|-------------------------------------------------------------------------|
G|------------------7----5-------------------------------------------------|
D|-------------2----7----5-------------------------------------------------|
A|-------------2----5----3-------------------------------------------------|
D|-------------2-----------------------------------------------------------|
then play the "cut through the limbs" part again.

BREAKDOWN!
e|---------10's------------------------------------------------------------|
B|--------not-1's----------------------------------------------------------|
G|-------------------------------------------------------------------------|
D|--22--2-101010-22-2-101010--X2--------------------10-12--X2--------------|
A|--22--2-101010-22-2-101010------22222222222-22222-10-12------------------|
D|--22--2-101010-22-2-101010------22222222222-22222-10-12------------------|
                                  ..........  .....

  "Your life is my well being..." play with echo or delay or something idk
e|-12----14-15-14--15-14-------15-----15-14-------15-17-15-----------------|
B|-----------------------15-17----17--------15-17------------X2------------|
G|-------------------------------------------------------------------------|
D|-------------------------------------------------------------------------|
A|-------------------------------------------------------------------------|
D|-------------------------------------------------------------------------|

Build-up to the end                 "For God's sake please..."
e|---------------------------------|---------------------------------------|
B|---------------------------------|---------------------------------------|
G|-------------------9-----5-5---14|-------5-----4-----2-------------------|
D|-2-----4-----7-----7-----x-x---x-|-2-----5-X16-5-X16-4-X8-------X2-------|
A|-2-X16-5-X16-5-X16-7-X8--3-3-/-12|-2-X16-3-----5-----5-------------------|
D|-2-----4-----5-----7-------------|-2-----------5-----4----5~-4~----------|

e|-------------------------------------------------------------------------|
B|-------------------------------------------------------------------------|
G|----5~--4--4--4--4--4--4---2--2--2---------------------------------------|
D|-2~-5~---55-55-55-55-55-----44-44-4-5~-4~---2~---------------------------|
A|-2~-3~--------------------------------------2~---------------------------|
D|-2~-----------------------------------------2~---------------------------|


| /  slide up
| \  slide down
| h  hammer-on
| p  pull-off
| ~  vibrato
| +  harmonic
| x  Mute note
============================================================================





Comments


Popular A Skylit Drive tabs & chords
Ability To Create A War Bass Tabs
Past The Love The Memories Bass Tabs
This Isnt The End Bass Tabs
Wires And The Concept Of Breathing 3 Bass Tabs
According To Columbus Chords
Knights Of The Round Chords
A Reason For Broken Wings Tabs
All Stars Diaries Tabs
This Isn't The End Tabs
According To Columbus Ukulele


Song lyrics



↑ Back to top | Tablatures and chords are parodies/interpretations of the original songs. You may use it for private study, scholarship, research or language learning purposes only
© 2014 AZChords.com Contact us | Privacy policy | DMCA | Add/correct tabs | Request tabs | Top 50 tabs