» » »

A Skylit Drive, Hey Nightmare, Where Did You Get Them Teeth? Bass tabs (ver.1)

Artists:  A B C D E F G H I J K L M N O P Q R S T U V W X Y Z # 

Hey Nightmare, Where Did You Get Them Teeth? Bass tabs (ver.1)

A Skylit Drive Tabs
Rating:
0/5 (0 votes)
Hey Nightmare, Where Did You Get Them Teeth? lessons Tabs too difficult? Try these video lessons and learn fast
                +++++++++++++++++++++++++++++++++++++++++++++++++++++++++++++++++
| A Skylit Drive- Hey Nightmare, Where Did You Get Them Teeth ? |
+++++++++++++++++++++++++++++++++++++++++++++++++++++++++++++++++

This is a realy weird song and I cant tell whats verse 
or chorus or anything


Tuning: Drop D (DADG)

Intro
"Run"
1.
G|------------------------------------------------------|
D|------------------------------------------------------|
A|------------------------------------------------------|
D|-22222222-2222x----22222222-222222-0-2-222222-2222222-|

"Put your vengeance aside..."
2.
G|------------------------------------|
D|------------------------------------|
A|-----3-3-3~-----3-3-3~--------------|
D|-0-0--------0-0--------0--0~--------|

"Collide your sword with mine..."
3.
G|------------------------------------------------------------------------|
D|------------------------------------------------------------------------|
A|-----------------------------------------3-3-3~-----3-3-3~--------------|
D|-22222222-222222-0-2-2222222-2222222-0-0--------0-0--------0--0~--------|

"Be this I know..."
4.
G|--------------------------------------------------------------------------------|
D|--------------------------------------------------------------------------------|
A|-------------------------------------33333333-33333333-33333333-3-3-3-3~--------|--x2
D|-22222222-22222222-00000000-00000000--------------------------------------------|

"Cut threw the limbs..."
5.
G|-------------------------------------------------------------------|
D|-----555-----555-----777-----777-----------------------------------|
A|-333-----333-----555-----555---------------------------------------|
D|---------------------------------2222222222222220-2222222222222222-|

"Cut threw the limbs..."
6.
G|-------------------------------------------------------------------|
D|-----555-----555-----777-----777-----------------------------------|
A|-333-----333-----555-----555---------------------------------------|
D|---------------------------------22x--------------22x--------------|

"She, watching the sky burn..."
7.
G|--------------------------------------------------------------------------------|
D|-----------5-4-0-2~-------------------------------5-4-0-2~----------------------|
A|-3~--------------------3~---------------3~--------------------3~--------55--55--|
D|--------------------------------00--00------------------------------------------|

"Follow the light of the moon..."
8.
G|-----------------------------------------------------------------------------------|
D|-----------5-4-0-2~-------------------------------5-4-0-2~-------------------------|
A|-3~--------------------3~---------------3~--------------------3~--------55--55--7x-|
D|--------------------------------00--00---------------------------------------------|

"Forgive me"
9.
G|--------------------------------------------------------------------------------|
D|--------------------------------------------------------------------------------|
A|-------------------------------------33333333-33333333-33333333-3-3-3-3~--------|
D|-22222222-22222222-00000000-00000000--------------------------------------------|

"Cut threw the limbs..."
10.
G|-------------------------------------------------------------------|
D|-----555-----555-----777-----777-----------------------------------|
A|-333-----333-----555-----555---------------------------------------|
D|---------------------------------2222222222222220-2222222222222222-|

"Cut threw the limbs..."
11.
G|----------------------------------------------------|
D|----------------------------------------------------|
A|-333-----333-----555-----555------------------------|
D|-----555-----555-----777-----777-22x----------------|

12.
G|-----------------------------------------------------------------------|
D|-----------------------------------------------------------------------|
A|----------------333--------------333--------------333--------------333-|
D|-22x---------22-----22x-------22-----22x-------22-----22x-------22-----|

"Conserve protect your life..."
13.
G|--------------------------------------------------------------------|
D|--------------------------------------------------------------------|
A|--------------------------------------------------------------------|
D|-222222222222x----222222222222x----2222222222222x----2222222222222x-|

"Your life is my well being..."
14.
G|-------------------------------------------|
D|-------------------------------------------|
A|-----------3~--------------------5~--------|
D|-2~------------------5~--------5-----------|

"I will not rest one day..."
15.
G|-------------------------------------------|
D|-------------------------------------------|
A|-----------3~--------------------5~--------|
D|-2~------------------5~--------------------|

3:15
16.
G|-------------------------------------------------------------------------|
D|-22222222-22222222-00000000-00002222-------------------00000000-00000000-|
A|-------------------------------------33333333-33333333-------------------|
D|-------------------------------------------------------------------------|

"For god's sake..."
17.
G|-------------------------------------------------------------------------|
D|-------------------------------------------------------------------------|
A|-------------------33333333-33333333-------------------------------------|--x3
D|-22222222-22222222-------------------55555555-55555575-44444444-00000000-|

"Warm..."
18.
G|----------------------------------------------------------------------------------|
D|----------------------------------------------------------------------------------|
A|-------------------3~-------------------------------------------------------------|
D|-2~----------------------------------5~----------------4~-------5~--4~--2~--------|

Lyrics:

Run, for your life now
Don’t you see your princess is gone?
Pull your vengeance aside
Let’s make it rain blood tonight

Collide your sword with mine, I’ll send your soul
To the hell where it came from
Be this I know you’ll never set your eyes
On a quest you can’t survive
It’s no surprise that your head hangs

Cut threw the limbs
Stab threw the enemies eyes
Any last man will die

She, watching the sky burn oh how it burns
Run for the skylines run for the skylines darling
Follow the light of the moon just stay alive

Forgive me
For tomorrow
If I’m late
I’ll died before I wake

What’s left for you
You wanted life
I showed you love
Conserve protect your life

Your life is my well being
And if lay in shadows then so be it
But let it be known that this soldier will not rest a day
Until he lays in the glamour and the grace of his bride
I will not rest one day until my victims blood is shed up
And down the shorelines

For gods sake please
Don’t you forgive me
I will wait for you
Race the sun
Pray for nothing warm

+++++++++++++++++++++++++++++++++
| RaiLeff                       |
+++++++++++++++++++++++++++++++++
            

comments powered by Disqus
↑ Back to top | A Skylit Drive Bass for Hey Nightmare, Where Did You Get Them Teeth?. Lyrics for acoustic guitar and electric guitar. Tablatures and chords are parodies/interpretations of the original songs. You may use it for private study, scholarship, research or language learning purposes only