» » »

Eva The Carrier Tabs (ver.1)

Artists:  A B C D E F G H I J K L M N O P Q R S T U V W X Y Z # 

Eva The Carrier Tabs (ver.1)

A Skylit Drive
Rating:
5/5 (4 votes)

Hard to play? Try these video lessons and learn fast.
                A Skylit Drive - Eva The Carrier

Drop D tuning (D-A-D-G-B-e)

Used in this tab:
/ - slide
h - hammer on
. - palm mute
b - bend
t - tremolo pick
~ - let ring for a bit


Please keep in mind that the video was made before
I finished this tab so this is a lot more accurate
than what you see in the video.

Please comment and rate!

Intro 0:02
e|-----------------------------------------------|
B|-------------------------------------4/6-------|
G|-----------------------------------------------|
D|-4-4444444---4-6-4-2-4-4-----------------------| x3
A|-4-4444444---------------0-4-7-4-7-------0-3h4-|
D|-4-4444444-4-----------------------2-----------|

0:18
e|---|
B|---|
G|---|
D|-4-|
A|-4-|
D|-4-|

0:20
e|-------------------------|
B|-------------------------|
G|---------------6-6-------|
D|---------------7-7-7-6-4-| x2
A|-------------------7-6-4-|
D|-8-4-7-4-2-4-4-----7-6-4-|
PM . . . . . . .

Verse 0:29
e|--------------------------------------------|
B|-----5---5-5-----5---5-5-----5-5---------5--|
G|-----------------------------------------7b-|
D|---------------------------------0-12/-2----|
A|---------------------------------0-12/-2----|
D|-4-4---4-----4-4---4-----4-4-----0-12/-2----|
PM . .   .     . .   .     . .

0:34
e|-------------------------------------------------|
B|-----7---7-7-----7---7-7-----7-7---------5-------|
G|-----------------------------------------7b------|
D|---------------------------------0-12/-2----4-4~-|
A|---------------------------------0-12/-2----4-4~-|
D|-4-4---4-----4-4---4-----4-4-----0-12/-2----4-4~-|
PM . .   .     . .   .     . .

Pre-chorus 0:42
e|-----------------------------------|
B|-----------------------------------|
G|-----------------------------------|
D|-6666666666666666-9999999999999999-|
A|-----------------------------------|
D|-----------------------------------|
PM ................ ..............

Chorus 0:48
e|--------------------------------------------|
B|--------------------------------------------|
G|--------------------------------------------|
D|-11-111111111111-7-777777-7-777777-9-999999-| x2
A|-9--9-9-9-9-9-9--5-555555-7-777777-7-777777-|
D|--------------------------7-777777----------|

e|----------------------------------------------------|
B|----------------------------------------------------|
G|----------------------------------------------------|
D|-11-111111111111-77-----------77-----------9-999999-|
A|-9--9-9-9-9-9-9--55-9-9-7-7-5-77-5-5-7-7-9-7-777777-|
D|------------------------------77--------------------|
PM                    . . . . .    . . . . .

e|--------------------------------------------|
B|--------------------------------------------|
G|--------------------------------------------|
D|-11-111111111111-7-777777-7-777777-9-999999-|
A|-9--9-9-9-9-9-9--5-555555-7-777777-7-777777-|
D|--------------------------7-777777----------|

Post-chorus 1:11
e|----------------------|
B|-----7----------------|
G|-------4--------------|
D|-4-------6---4h6------| x2
A|-4---------4-----4-7/-|
D|-4--------------------|

Breakdown 1:23
e|--------------------------------------------|
B|--------------------------------------------|
G|--------------------------------------------|
D|--------------------------------------------|
A|--77-44-77-44-77-44-7-4---7777-44-77-44-7-4-|
D|--------------------------------------------|
PM  .. .. .. .. .. .. . .   .... .. .. .. . .

e|-------------------------|
B|-------------------------|
G|-------------------------|
D|-7t-6t-2t-4t----3t-4t-6t-|
A|-------------4t----------|
D|-------------------------|

e|--------------------------------------------|
B|--------------------------------------------|
G|--------------------------------------------|
D|--------------------------------------------|
A|--77-44-77-44-77-44-7-4---7777-44-77-44-7-4-|
D|--------------------------------------------|
PM  .. .. .. .. .. .. . .   .... .. .. .. . .

e|-------------------------|
B|-------------------------|
G|-------------------------|
D|-7t-6t-2t-4t----3t-4t-6t-| x2
A|-------------4t----------|
D|-------------------------|

e|------|
B|------|
G|------|
D|-4-4~-|
A|-4-4~-|
D|-4-4~-|

Pre-chorus 1:40
e|-----------------------------------|
B|-----------------------------------|
G|-----------------------------------|
D|-6666666666666666-9999999999999999-|
A|-----------------------------------|
D|-----------------------------------|
PM ................ ..............

Chorus 1:46
e|--------------------------------------------|
B|--------------------------------------------|
G|--------------------------------------------|
D|-11-111111111111-7-777777-7-777777-9-999999-| x2
A|-9--9-9-9-9-9-9--5-555555-7-777777-7-777777-|
D|--------------------------7-777777----------|

e|----------------------------------------------------|
B|----------------------------------------------------|
G|----------------------------------------------------|
D|-11-111111111111-77-----------77-----------9-999999-|
A|-9--9-9-9-9-9-9--55-9-9-7-7-5-77-5-5-7-7-9-7-777777-|
D|------------------------------77--------------------|
PM                    . . . . .    . . . . .

e|--------------------------------------------|
B|--------------------------------------------|
G|--------------------------------------------|
D|-11-111111111111-7-777777-7-777777-9-999999-|
A|-9--9-9-9-9-9-9--5-555555-7-777777-7-777777-|
D|--------------------------7-777777----------|

2:09
e|---------------------|
B|---------------------|
G|---------------------|
D|-0~---2222-3333-4-4~-|
A|-0~---2222-3333-4-4~-|
D|-0~---2222-3333-4-4~-|



- Synth Interlude -



2:40
e|-----------------------------------------------|
B|-----------------------------------------------|
G|----------13131313/14141414--------------------|
D|-44444444-x-x-x-x-/x-x-x-x--00000000-2222-3333-| x3
A|-44444444-11111111/12121212-00000000-2222-3333-|
D|-44444444-------------------00000000-2222-3333-|

e|--------------------------------------------------|
B|----------------------------------------4/6-------|
G|----------13131313/14141414-----------------------|
D|-44444444-x-x-x-x-/x-x-x-x------------------------|
A|-44444444-11111111/12121212-0-4-6-4-6-------0-3h4-|
D|-44444444-----------------------------2-----------|

Chorus 3:05
e|--------------------------------------------|
B|--------------------------------------------|
G|--------------------------------------------|
D|-11-111111111111-7-777777-7-777777-9-999999-| x2
A|-9--9-9-9-9-9-9--5-555555-7-777777-7-777777-|
D|--------------------------7-777777----------|

e|----------------------------------------------------|
B|----------------------------------------------------|
G|----------------------------------------------------|
D|-11-111111111111-77-----------77-----------9-999999-|
A|-9--9-9-9-9-9-9--55-9-9-7-7-5-77-5-5-7-7-9-7-777777-|
D|------------------------------77--------------------|
PM                    . . . . .    . . . . .

e|--------------------------------------------|
B|--------------------------------------------|
G|--------------------------------------------|
D|-11-111111111111-7-777777-7-777777-9-999999-|
A|-9--9-9-9-9-9-9--5-555555-7-777777-7-777777-|
D|--------------------------7-777777----------|

Outro 3:27
e|---------------------|
B|---------------------|
G|---------------------|
D|-0~---2222-3333-4-4~-|
A|-0~---2222-3333-4-4~-|
D|-0~---2222-3333-4-4~-|
            
Hard to play? Try these video lessons and learn fast. | Correct




comments powered by Disqus
↑ Back to top | Tablatures and chords are parodies/interpretations of the original songs. You may use it for private study, scholarship, research or language learning purposes only