» » »

A Skylit Drive, Eris And Dysnomia Tabs (ver.1)

Artists:  A B C D E F G H I J K L M N O P Q R S T U V W X Y Z # 

Eris And Dysnomia Tabs (ver.1)

A Skylit Drive Tabs
Rating:
5/5 (4 votes)
Eris And Dysnomia lessons Tabs too difficult? Try these video lessons and learn fast
                pages/Arista-Lucena/226729694026830
09283150081 Lucena Phils.

Intro/Verse-

The time has come to show yourself
Nothing can stop us now

GtrI
|-------------------------------------------------------------------|
|-------------------------------------------------------------------|
|---------------------------------1010101010101010-1010101010101010-|
|-0-7h8-0-7-8-0-12p10-0-10h12---7h8-8-8-8-8-8-8-8-------------------|
|-0-7h8-0-7-8-0-12p10-0-10h12---7h8-8-8-8-8-8-8-8--1212121212121212-|
|-0-7h8-0-7-8-0-12p10-0-10h12---7h8-8-8-8-8-8-8-8-------------------|

GtrII
|-------------------------------------------------------------------|
|-------------------------------------------------------------------|
|---------------14/12---12\14-----1010101010101010-9-9-9-9-9-9-9-9--|
|-0-7h8-0-7-8-0-----------------7h8-8-8-8-8-8-8-8--7-7-7-7-7-7-7-7--|
|-0-7h8-0-7-8-0-12/10-0-10\12---7h8-8-8-8-8-8-8-8--7-7-7-7-7-7-7-7--|
|-0-7h8-0-7-8-0-----------------7h8-8-8-8-8-8-8-8--7-7-7-7-7-7-7-7--|

GtrI&GtrII
                          This is a wasteland...  Make your move,,, 
|----------------------------------------------------------------|
|----------------------------------------------------------------|
|----------------------------------------------------------------|
|-8-7-0-8-7-5---------------------------------------8/0-8/0-8/0--|
|-8-7-0-8-7-5--0-000-00-00-00-------0-000-00-00-00--8/0-8/0-8/0--|
|-8-7-0-8-7-5--0-000-00-00-00-------0-000-00-00-00--8/0-8/0-8/0--|

|-----------------------------------------------------------|
|-----------------------------------------------------------|
|-----------------------------------------------------------|
|--------------------------------------8/0-8/0--------------|
|-0-000-00-00-00-------0-000-00-00-00--8/0-8/0--------------|
|-0-000-00-00-00-------0-000-00-00-00--8/0-8/0--------------|


Chorus-
Everybody everybody get down get down
This isn't a lie
Just take a word from the wise
GtrI
|----------------------------------------------------------------|
|----------------------------------------------------------------|
|----------------------------------------------------------------|
|-0-0-3-0-3h5-3-0-3h5p3-0-3h5p3-3-3-0-3h5-3-0-3h5p3-0-3h5p3------|
|-0-----------------------------1--------------------------------|
|-0--------------------------------------------------------------|

|------------------------------------------------------------------|
|------------------------------------------------------------------|
|------------------------------------------------------------------|
|-t8/7-3-0-3h5-3-0-3h5p3-0-3h5p3-t8/7-3-0-3h5-3-0-3h5p3-0-3h5p3----|
|------------------------------------------------------------------|
|------------------------------------------------------------------|
                                                                
GtrII
|-----------------------------------------|
|-----------------------------------------|
|-----------------------------------------|2x
|-0-0-0-0-0-0-0-0-0-8-8-8-8-10-10-10-10---|
|-0-0-0-0-0-0-0-0-0-8-8-8-8-10-10-10-10---|
|-0-0-0-0-0-0-0-0-0-8-8-8-8-10-10-10-10---|

then

This is a wasteland
Make your move
Gtrs
|-----------------------------------------------------------|
|-----------------------------------------------------------|
|-----------------------------------------------------------|
|--------------------------------------8/0-8/0-8/0----------|
|-0-000-00-00-00-------0-000-00-00-00--8/0-8/0-8/0----------|
|-0-000-00-00-00-------0-000-00-00-00--8/0-8/0-8/0----------|

|---------------12-----------------------------------------------|
|-----------------13---------------------------------------------|
|-------------------14-------------------------------------------|
|-------------------------------------0-8/0-8/0-8/0--8/0-8/0-8/0-|
|-0-000-00-00-00-------0-000-00-00-00-0-8/0-8/0-8/0--8/0-8/0-8/0-|
|-0-000-00-00-00-------0-000-00-00-00-0-8/0-8/0-8/0--8/0-8/0-8/0-|


They are coming for you
It's tearing us all into pieces
GtrI
|-------------------------------------------------------------------|
|-------------------------------------------------------------------|
|---------------------------------1010101010101010-1010101010101010-|
|-0-7h8-0-7-8-0-12p10-0-10h12---7h8-8-8-8-8-8-8-8-------------------|
|-0-7h8-0-7-8-0-12p10-0-10h12---7h8-8-8-8-8-8-8-8--1212121212121212-|
|-0-7h8-0-7-8-0-12p10-0-10h12---7h8-8-8-8-8-8-8-8-------------------|

GtrII
|-------------------------------------------------------------------|
|-------------------------------------------------------------------|
|---------------14/12---12\14-----1010101010101010-9-9-9-9-9-9-9-9--|
|-0-7h8-0-7-8-0-----------------7h8-8-8-8-8-8-8-8--7-7-7-7-7-7-7-7--|
|-0-7h8-0-7-8-0-12/10-0-10\12---7h8-8-8-8-8-8-8-8--7-7-7-7-7-7-7-7--|
|-0-7h8-0-7-8-0-----------------7h8-8-8-8-8-8-8-8--7-7-7-7-7-7-7-7--|


               Bridge--
|----------------------------------------------------------------|
|----------------------------------------------------------------|
|----------------------------------------------------------------|
|-8-7-0-8-7-5--0-------------------------------------------------|
|-8-7-0-8-7-5--0-------------------------------------------------|
|-8-7-0-8-7-5--0-------------------------------------------------|

1:06
I'll find you in the deepest of nights
You'll be the one who sets me free

Gtr with delay
|-13p12-(13)(12)------------------------------------|
|----------------13---(13)-13/15(13)----------------|
|-------------------14---------------12/14-(12)(14)-|
|---------------------------------------------------|
|---------------------------------------------------|
|---------------------------------------------------|

|-13p12-(13)(12)------------------------------------|
|----------------13---(13)----------------13/15(13)-|
|-------------------14----12/14-(12)(14)------------|
|---------------------------------------------------|
|---------------------------------------------------|
|---------------------------------------------------|

|-13p12-(13)(12)------------------------------------|
|----------------13---(13)-13/15(13)----------------|
|-------------------14---------------12/14-(12)(14)-|
|---------------------------------------------------|
|---------------------------------------------------|
|---------------------------------------------------|

|-13p12-(13)(12)------------------------------------|
|----------------13---(13)--------------------------|
|-------------------14------------------------------|
|---------------------------------------------------|
|---------------------------------------------------|
|---------------------------------------------------|

To all of our wasted nights
To all of our wrongs we made right
GtrII
|---------------------------------------------|
|---------------------------------------------|
|---------------------------------------------|
|-0000000000000000-88888888-1010101010101010--|2x
|-0000000000000000-88888888-1010101010101010--|
|-0000000000000000-88888888-1010101010101010--|

GtrI@1:25
|-----------------------------------------------|
|-----------------------------------------------|
|-----------------------------------------------|
|-t8/7-p3-p0-h3-h5-p3-p0-h3-p0-h3-h5-p3-p0-h3---|2x
|-----------------------------------------------|
|-----------------------------------------------|

Do Chorus-2x
Everybody everybody get down get down
This isn't a lie
Just take a word from the wise


This is a wasteland                   Make your move        
|-----------------------------------------------------------|
|-----------------------------------------------------------|
|-----------------------------------------------------------|
|--------------------------------------8/0-8/0-8/0----------|
|-0-000-00-00-00-------0-000-00-00-00--8/0-8/0-8/0----------|
|-0-000-00-00-00-------0-000-00-00-00--8/0-8/0-8/0----------|

|---------------12------------------------------------------------|
|-----------------13----------------------------------------------|
|-------------------14--------------------------------------------|
|--------------------------------------8/0-8/0-8/0--8/0-8/0-8/0-0-|
|-0-000-00-00-00-------0-000-00-00-00--8/0-8/0-8/0--8/0-8/0-8/0-0-|
|-0-000-00-00-00-------0-000-00-00-00--8/0-8/0-8/0--8/0-8/0-8/0-0-|


(12)-12 is not picked it's from a delay...
            

comments powered by Disqus
↑ Back to top | A Skylit Drive Tabs for Eris And Dysnomia. Lyrics for acoustic guitar and electric guitar. Tablatures and chords are parodies/interpretations of the original songs. You may use it for private study, scholarship, research or language learning purposes only