» » »

A Skylit Drive, 238 Bass tabs (ver.1)

Artists:  A B C D E F G H I J K L M N O P Q R S T U V W X Y Z # 

238 Bass tabs (ver.1)

A Skylit Drive Tabs
Rating:
0/5 (0 votes)
238 lessons Tabs too difficult? Try these video lessons and learn fast
                +++++++++++++++++++++++
| A Skylit Drive- 238 |
+++++++++++++++++++++++

I think this is one of the first songs
Of this band
I really like it, here's the way I play it:

Tuning: Drop D (DADG)

Intro
1.
G|-----------------------------------------------------------|
D|-----------------------------------------------------------|
A|-222222------------5~-5-755----------------000-----000-4-5-|--x2
D|--------5~-555-5-5----------5~-555-5-5-000-----000---------|

Verse
2.
G|------------------------------------------|
D|--------------------------------5~--4~--0-|
A|-2~--2-2~--2~--2-2-5----------------------|
D|----------------------5~--5-5~------------|

3.
G|----------------------------------------------------|
D|--------------------------------5~--4~--0-0~--------|
A|-2~--2-2~--2~--2-2-5--------------------------------|
D|----------------------5~--5-5~----------------------|

Pre-Chorus
4.
G|--------------------------------------|
D|--------------------------4-----2-----|
A|-22-22-22-55-5-5------------4-2---4~--|--x3
D|-----------------55-55-55-------------|

5.
G|----------------------------------|
D|----------------------------------|
A|-22-22-22-55-5-5------------------|
D|-----------------55-55--5~--------|

Chorus
6.
G|-----------------------------------------------------------|
D|-----------------------------------------------------------|
A|-222222------------5~-5-755----------------000-----000-4-5-|--x2
D|--------5~-555-5-5----------5~-555-5-5-000-----000---------|

Verse
7.
G|------------------------------------------|
D|--------------------------------5~--4~--0-|
A|-2~--2-2~--2~--2-2-5----------------------|
D|----------------------5~--5-5~------------|

3.
G|----------------------------------------------------|
D|--------------------------------5~--4~--0-0~--------|
A|-2~--2-2~--2~--2-2-5--------------------------------|
D|----------------------5~--5-5~----------------------|

Pre-Chorus
9.
G|--------------------------------------|
D|--------------------------4-----2-----|
A|-22-22-22-55-5-5------------4-2---4~--|--x3
D|-----------------55-55-55-------------|

10.
G|----------------------------------|
D|----------------------------------|
A|-22-22-22-55-5-5------------------|
D|-----------------55-55--5~--------|

Chorus
11.
G|-----------------------------------------------------------|
D|-----------------------------------------------------------|
A|-222222------------5~-5-755----------------000-----000-4-5-|--x4
D|--------5~-555-5-5----------5~-555-5-5-000-----000---------|

2:47
Bridge
12.
G|-------------------------------------------------|
D|-------------------------------------------------|
A|-0222222x----0222222x----------------------------|--x4
D|-------------------------5555555x----5555555x----|

Chorus
13.
G|-----------------------------------------------------------|
D|-----------------------------------------------------------|
A|-222222------------5~-5-755----------------000-----000-4-5-|--x4
D|--------5~-555-5-5----------5~-555-5-5-000-----000---------|

Outro
14.
G|-------------------|
D|-------------------|
A|-2~----------------|
D|-------------------|

4:09
15.
G|------------------------------------------|
D|------------------------------------------|
A|-2-2----------------0-2-2-----------------|
D|-----00x----5-5-00--------00x----5-5-00x--|

16.
G|-------------------------------------------|
D|-------------------------------------------|
A|-2-2----------------0-2-2------------------|
D|-----00~----5-5-00--------00~----5-5-5-5x--|

End

+++++++++++++++++++++++++++++++++
| RaiLeff                       |
+++++++++++++++++++++++++++++++++
            
Submit corrections

comments powered by Disqus
↑ Back to top | A Skylit Drive Bass for 238. Lyrics for acoustic guitar and electric guitar. Tablatures and chords are parodies/interpretations of the original songs. You may use it for private study, scholarship, research or language learning purposes only