>
 >
The Match

The Match Guitar Tabs

Asking Alexandria - The Match chords, tabs, tablatures, lyrics

Guitar lessons | Add/correct | Request | Top 50 tabs Artists:  A B C D E F G H I J K L M N O P Q R S T U V W X Y Z 0-9

The Match Guitar Tabs – Asking Alexandria

CD, Sheet music, Poster

Do you like The Match? Share with your friends now
Tabs
Album:	Reckless and Relentless
Tuning:	Drop C
______________________________________________________________________________
0:00
D ½-------------------------------------------------|
A ½-------------------------------------------------|
F ½---7-77-777-777-7775-55-5559-99-99910-1010-101010|
C ½---x-xx-xxx-xxx-xxxx-xx-xxxx-xx-xxxx--x-x--x-x-x-|
G ½---5-55-555-555-5553-33-3337-77-7778--8-8--8-8-8-|
C ½-------------------------------------------------|

------------------------------------------------|
------------------------------------------------|
-101010-10101012-1212-121212-15-------14--------|
-x-x-x--x-x-x-x--x-x--x-x-x--x--(x4)--x--(x4)---|
-8-8-8--8-8-8-10-1010-101010-13-------12--------|
------------------------------------------------|

0:10
D -------------------------------------------------------------------------|
A -------------------------------------------------------------------------|
F ---7---------5--------9--------10--------15-------12-------14------------|
C ---x--(x16)--x--(x8)--x--(x8)--x--(x16)--x--(x8)--x--(x4)--x--(x4)--0~---|
G ---5---------3--------7--------8---------13-------10-------12-------0~---|
C --------------------------------------------------------------------0~---|

0:21
D -------------------------------------------------|
A -------------------------------------------------|
F -------------------------------------------------|
C -------------------------------------------------|
G ---0000-0000-0-0--0-00000-0-0000-0000-0000-0-0---|
C ---0000-0000-0-0--0-00000-0-0000-0000-0000-0-0---|
      **** **** * *  * ***** * **** **** **** * *
0:32, 3:34
D -----------------------------------|
A -----------------------------------|
F -----------------------------------|
C -----------------------------------| x2
G ---0000-0000-0-0--0-00000-0-0000---|
C ---0000-0000-0-0--0-00000-0-0000---|
      **** **** * *  * ***** * ****
0:38
D -------------------------------------------|
A -------------------------------------------|
F -------------------------------------------|
C ----------(Let the Notes Ring)-------------|
G ---0000~-0000~-0~-0~--0~-00000~-0~-0000~---|
C ---0000~-0000~-0~-0~--0~-00000~-0~-0000~---|
      ****  ****  *  *   *  *****  *  ****
0:42
D ---------------------------------------|
A ---------------------------------------|
F ------------------14-14-12-9-10-10-9---|
C ------------------x--x--x--x-x--x--x---|
G ---0000-0000-0-0--12-12-10-7-8--8--7---|
C ---0000-0000-0-0-----------------------|
      **** **** * *
0:45, 0:56
D ----------------------------------------|
A ----------------------------------------|
F ---7-7-7-7--10-10-10-10-----------------|
C ---x-x-x-x--x--x--x--x------------------|
G ---5-5-5-5--8--8--8--8--8-88-88-77777---|
C ------------------------8-88-88-77777---|

D ----------------------------------------|
A ----------------------------------------|
F ---7-7-7-7--10-10-10-10-----------------|
C ---x-x-x-x--x--x--x--x------------------| x2
G ---5-5-5-5--8--8--8--8--3-33-33-33333---|
C ------------------------3-33-33-22222---|

1:08
D ----------------------------------------------|
A ----------------------------------------------|
F ----------------------------------------------|
C ----------------------------------------------|
G ---0-0000-0-0-0-0000000-000000-0-0000-0-0-0---|
C ---0-0000-0-0-0-0000000-000000-0-0000-0-0-0---|
      * **** * * * ******* ****** * **** * * *
1:15, 1:19, 1:22, 1:26
D ---------------------------------------|
A ---------------------------------------|
F ---------------------------------------|
C ---------------------------------------| x4
G ---0-0000--------0-0000-0000-----7-8---|
C ---0-0000-5b-10b-0-0000-0000-0-7-------|
      * ****        * **** ****
1:2, 1:32
D -------------------------|
A -------------------------|
F -------------------------|
C -------------------------| x2
G ---0000-0000-0000-0000---|
C ---0000-0000-0000-0000---|
      **** **** **** ****
1:35, 1:45
D ----------------------------------------|
A ----------------------------------------|
F ---7-7-7-7--10-10-10-10-----------------|
C ---x-x-x-x--x--x--x--x------------------|
G ---5-5-5-5--8--8--8--8--8-88-88-77777---|
C ------------------------8-88-88-77777---|

D ----------------------------------------|
A ----------------------------------------|
F ---7-7-7-7--10-10-10-10-----------------|
C ---x-x-x-x--x--x--x--x------------------| x2
G ---5-5-5-5--8--8--8--8--3-33-33-33333---|
C ------------------------3-33-33-22222---|

1:56
D -------------|
A -------------|
F -------------|
C ---0~-0------|
G ---0~-0~-0---|
C ---0~-0~-0---|
            *
2:06
D ------------------------------------------------------------------|
A ------------------------------------------------------------------|
F ------------------------------------------------------------------|
C ------------------------------------------------------------------|
G -----------0-0-0-00-0-00-0-0-00---------0-0-0-00-0-0-0-0-0-0000---|
C ---12b-12b-0-0-0-00-0-00-0-0-00-14b-14b-0-0-0-00-1-1-1-1-1-1111---|
              *   * ** * **   * **         *   * ** * * *   * ****
2:14
D -------------------------------------------------------------------|
A -------------------------------------------------------------------|
F -------------------------------------------------------------------|
C -------------------------------------------------------------------|
G -----------0-0-0-00-0000-0-0-00---------0-0-0-00-0000-0-0----------|
C ---12b-12b-0-0-0-00-0000-0-0-00-11b-11b-0-0-0-00-0000-0-0-0-(db)---|
              *   * ** ****   * **         *   * ** ****   *
2:22
D ---------------------------------------------------------------------|
A ---------------------------------------------------------------------|
F ---------------------------------------------------------------------|
C ---------------------------------------------------------------------|
G -----------0-0-0-0-0-0-0-0-0-0-0-0---------0-0-0-0-0-0-0-0-0-0-0-0---|
C ---15b-14b-0-0-0-0-0-0-0-0-0-0-0-0-14b-13b-0-1-1-1-1-1-1-1-1-1-1-1---|
                * * * * * * * * * * *           * * * * * * * * * * *
2:30
D -------------------------------------------------------------------|
A -------------------------------------------------------------------|
F -------------------------------------------------------------------|
C -------------------------------------------------------------------|
G -----------0-0-00--0-0-0-0-0-0-0---------0-0-0-0-0-0-0-0-0-0-0-0---|
C ---15b-14b-0-0-00--0-0-0-0-0-0-0-14b-13b-0-1-1-1-1-1-1-1-1-1-1-1---|
                * **  * * * * * * *           * * * * * * * * * * *
2:40
D -----------------|
A -----------------|
F -----------------|
C -----------------|
G ---0~-0~-0~-0~---|
C ---1~-1~-1~-1~---|
      *  *  *  *
2:44
D ------------------------------|
A -------------------------9----|
F -------------------------12---|
C ------------------------------|
G ---0--0-0-0-0--0-0-0----------|
C ---0--0-0-0-0--0-0-0-1p0------|
      *  * * * *  * * *
2:48
D ------------------------------------------------------|
A -------------------------------------------------9----|
F -------------------------------------------------12---|
C ------------------------------------------------------|
G ---0--0-0-0-0--0-0-0-0--0--0--0-0-0-0--0-0-0----------|
C ---0--0-0-0-0--0-0-0-0--0--1--1-1-1-1--1-1-1-1p0------|
      *  * * * *  * * * *  *  *  * * * *  * * *
2:57
D --------------------------------|
A --------------------------------|
F --------------------------------|
C --------------------------------|
G ---0--0-0-0-0--0-0-0-0--0--0~---|
C ---1--1-1-1-1--1-1-1-1--1--0~---|
      *  * * * *  * * * *  *
3:41
D ------------------------------------------|
A ------------------------------------------|
F ------------------------------------------|
C ------------------------------------------|
G ---00--00-00--00-00-0000--00-00-00-0000---|
C ---00--00-00--00-00-0000--00-00-00-0000---|
      **  ** **  ** ** ****  ** ** ** ****
3:49
D -----------------------------------------------------|
A -----------------------------------------------------|
F -----------------------------------------------------|
C ---(Let the Notes Ring)------------------------------|
G ---00~-00~-00~--00~-00~-00~--00~-00~-00~-00~-0000~---|
C ---00~-00~-00~--00~-00~-00~--00~-00~-00~-00~-0000~---|
      **  **  **   **  **  **   **  **  **  **  ****
3:55
D --------------------------------------------|
A --------------------------------------------|
F --------------------------------------------|
C --------------------------------------------|
G ---0000--00-00--00-00-0000--00-00-00-0000---|
C ---0000--00-00--00-00-0000--00-00-00-0000---|
      ****  ** **  ** ** ****  ** ** ** ****
4:02
D ----------------------------------------------------------|
A ----------------------------------------------------------|
F ----------------------------------------------------------|
C ---(Let the Notes Ring)-----------------------------------|
G ---00~-00~-00~--00~-00~-00~--00~-00~-00~-00~-0000~--000---|
C ---00~-00~-00~--00~-00~-00~--00~-00~-00~-00~-0000~--000---|
      **  **  **   **  **  **   **  **  **  **  ****   ***

Legend:
~	Let Note Ring
*	Palm Mute
x	Dead Note
b	Bend Note
db	Dive Bomb
p	Pull-Off

END





Comments


Popular Asking Alexandria tabs & chords
Someone, Somewhere Chords
A Candlit Dinner With Inamorta Tabs
Dear, Insanity Tabs
I Used To Have A Best Friend (But Then He Gave Me An Std) Tabs
If You Cant Ride Two Horses At Once You Should Get Out Of The Circus 1 Tabs
Killing You Tabs
Someone Somewhere 2 Tabs
Someone Somewhere 4 Tabs
Someone, Somewhere Tabs
Welcome Tabs


Song lyrics



↑ Back to top | Tablatures and chords are parodies/interpretations of the original songs. You may use it for private study, scholarship, research or language learning purposes only
© 2014 AZChords.com Contact us | Privacy policy | DMCA | Add/correct tabs | Request tabs | Top 50 tabs