» » »

Run Free Tabs (ver.1)

Artists:  A B C D E F G H I J K L M N O P Q R S T U V W X Y Z # 

Run Free Tabs (ver.1)

Asking Alexandria
Rating:
0/5 (0 votes)

Hard to play? Try these video lessons and learn fast.
                Tuning: Drop B

This may not be 100% correct as I learnt it be ear, but its pretty accurate.
Hope this helps, if I made any mistakes let me know.

Intro

C#|---------------------|
G#|---------------------|
 E|---------<5>---------|
 B|---------------------|
F#|---------------------|
 B|---------------------|



C#|---------------------------------------------------------------------|
G#|---------------------------------------------------------------------|
 E|---------------------------------------------------------------------|
 B|---------------------------------------------------------------------| x2
F#|---------------------------------------------------------------------|
 B|--7-0-8-0--0-1-0---0---0---0---0---7-0-8-0--0-1-0---0---0-8-8-10-10--|



C#|----------------------------------------------------------------------------------|
G#|----------------------------------------------------------------------------------|
 E|----------------------------------------------------------------------------------|
 B|----------------------------------------------------------------------------------| x2
F#|---------------------------------000-000-----------------------------000-000-000--|
 B|--7-0-8-0--0-1-0---0---0---0---0-000-000--7-0-8-0--0-1-0---0---0-0-0-000-000-000--|
                                    ... ...                             ... ... ...


C#|---------------------------------------------------------------------------------------------------|
G#|---------------------------------------------------------------------------------------------------|
 E|--10-10-10-10-10-10-10-10-10-10-10-10-10-10-10-10-14-14-14-14-14-14-14-14-14-14-14-14-14-14-14-14--|
 B|--x--x--x--x--x--x--x--x--x--x--x--x--x--x--x--x--x--x--x--x--x--x--x--x--x--x--x--x--x--x--x--x---|
F#|--8--8--8--8--8--8--8--8--8--8--8--8--8--8--8--8--12-12-12-12-12-12-12-12-12-12-12-12-12-12-12-12--|
 B|---------------------------------------------------------------------------------------------------|

Verse 1

C#|---------------------------------------------------------------------------------------------------|
G#|---------------------------------------------------------------------------------------------------|
 E|---------------------------------------------------------------------------------------------------|
 B|---------------------------------------------------------------------------------------------------|
F#|---------------------------------------------------------------------------------------------------|
 B|--1-0---10-0-12-0---10-0-12-0---1-0---10-0-12-0---12-13-15-13-12-13---1-0---10-0-12-0---10-0-12-0--|



C#|----------------------------------------------------------|
G#|----------------------------------------------------------|
 E|----------------------------------------------------------|
 B|----------------------------------------------------------| x2
F#|----------------------------------------------------------|
 B|--1-0---5-0-7-0---5-0-7-0---1-0---5-0-7-0---7-8-10-8-7-8--|

Chorus

C#|------------------------------------------------------------------------------------------------|
G#|------------------------------------------------------------------------------------------------|
 E|------------------------------------------------------------------------------------------------|
 B|--12-12-12-12-12-12-12-12-12-12-12-12-12-12-12-12-12-12-12-12-12-12-12-12-12-12-12-10-10-10-10--|
F#|--12-12-12-12-12-12-12-12-12-12-12-12-12-12-12-12-12-12-12-12-12-12-12-12-12-12-12-10-10-10-10--|
 B|--12-12-12-12-12-12-12-12-12-12-12-12-12-12-12-12-12-12-12-12-12-12-12-12-12-12-12-10-10-10-10--|

C#|-------------------------------------------------------------------|
G#|-------------------------------------------------------------------|
 E|-------------------------------------------------------------------|
 B|--8-8-8-8-8-8-8-8-8-8-8-8-8-8-8-8-7-7-7-7-7-7-7-7-7-7-7-7-7-7-7-7--| x2
F#|--8-8-8-8-8-8-8-8-8-8-8-8-8-8-8-8-7-7-7-7-7-7-7-7-7-7-7-7-7-7-7-7--|
 B|--8-8-8-8-8-8-8-8-8-8-8-8-8-8-8-8-7-7-7-7-7-7-7-7-7-7-7-7-7-7-7-7--|

Intro

C#|---------------------------------------------------------------------|
G#|---------------------------------------------------------------------|
 E|---------------------------------------------------------------------|
 B|---------------------------------------------------------------------| x2
F#|---------------------------------------------------------------------|
 B|--7-0-8-0--0-1-0---0---0---0---0---7-0-8-0--0-1-0---0---0-8-8-10-10--|

Verse 2

C#|---------------------------------------------------------------------|
G#|---------------------------------------------------------------------|
 E|---------------------------------------------------------------------|
 B|---------------------------------------------------------------------| x2
F#|---------------------------------------------------------------------|
 B|--1-0---10-0-12-0---10-0-12-0---1-0---10-0-12-0---12-13-15-13-12-13--|


C#|----------------------------------------------------------|
G#|----------------------------------------------------------|
 E|----------------------------------------------------------|
 B|----------------------------------------------------------| x2
F#|----------------------------------------------------------|
 B|--1-0---5-0-7-0---5-0-7-0---1-0---5-0-7-0---7-8-10-8-7-8--|

Chorus

C#|------------------------------------------------------------------------------------------------|
G#|------------------------------------------------------------------------------------------------|
 E|------------------------------------------------------------------------------------------------|
 B|--12-12-12-12-12-12-12-12-12-12-12-12-12-12-12-12-12-12-12-12-12-12-12-12-12-12-12-10-10-10-10--|
F#|--12-12-12-12-12-12-12-12-12-12-12-12-12-12-12-12-12-12-12-12-12-12-12-12-12-12-12-10-10-10-10--|
 B|--12-12-12-12-12-12-12-12-12-12-12-12-12-12-12-12-12-12-12-12-12-12-12-12-12-12-12-10-10-10-10--|

C#|-------------------------------------------------------------------|
G#|-------------------------------------------------------------------|
 E|-------------------------------------------------------------------|
 B|--8-8-8-8-8-8-8-8-8-8-8-8-8-8-8-8-7-7-7-7-7-7-7-7-7-7-7-7-7-7-7-7--| x2
F#|--8-8-8-8-8-8-8-8-8-8-8-8-8-8-8-8-7-7-7-7-7-7-7-7-7-7-7-7-7-7-7-7--|
 B|--8-8-8-8-8-8-8-8-8-8-8-8-8-8-8-8-7-7-7-7-7-7-7-7-7-7-7-7-7-7-7-7--|

Breakdown

C#|--------------------------------------------------------------------|
G#|--------------------------------------------------------------------|
 E|--------------------------------------------------------------------|
 B|--------------------------------------------------------------------| x2
F#|--0-0--0--0------0--0-0---0--0-0----0-0--0--0------0--0-0---0--0-0--|
 B|--1-1--1--1------1--1-1---1--1-0----1-1--1--1------1--1-1---1--1-0--|

Break

chorus

C#|------------------------------------------------------------------------------------------------|
G#|------------------------------------------------------------------------------------------------|
 E|------------------------------------------------------------------------------------------------|
 B|--12-12-12-12-12-12-12-12-12-12-12-12-12-12-12-12-12-12-12-12-12-12-12-12-12-12-12-10-10-10-10--|
F#|--12-12-12-12-12-12-12-12-12-12-12-12-12-12-12-12-12-12-12-12-12-12-12-12-12-12-12-10-10-10-10--|
 B|--12-12-12-12-12-12-12-12-12-12-12-12-12-12-12-12-12-12-12-12-12-12-12-12-12-12-12-10-10-10-10--|

C#|-------------------------------------------------------------------|
G#|-------------------------------------------------------------------|
 E|-------------------------------------------------------------------|
 B|--8-8-8-8-8-8-8-8-8-8-8-8-8-8-8-8-7-7-7-7-7-7-7-7-7-7-7-7-7-7-7-7--| x4
F#|--8-8-8-8-8-8-8-8-8-8-8-8-8-8-8-8-7-7-7-7-7-7-7-7-7-7-7-7-7-7-7-7--|
 B|--8-8-8-8-8-8-8-8-8-8-8-8-8-8-8-8-7-7-7-7-7-7-7-7-7-7-7-7-7-7-7-7--|

Played over chorus after second time

C#|--10-10-10-10-10-10-10-10-10-10-10-10-10-10-10-10-13-13-13-13-13-13-13-13-12-12-12-12-12-12-12-12-|
G#|--------------------------------------------------------------------------------------------------|
 E|--------------------------------------------------------------------------------------------------|
 B|--------------------------------------------------------------------------------------------------|
F#|--------------------------------------------------------------------------------------------------|
 B|--------------------------------------------------------------------------------------------------|

C#|--10-10-10-10-10-10-10-10-10-10-10-10-10-10-10-10-13-13-13-13-13-13-13-13-17-17-17-17-15-15-15-15-|
G#|--------------------------------------------------------------------------------------------------|
 E|--------------------------------------------------------------------------------------------------|
 B|--------------------------------------------------------------------------------------------------|
F#|--------------------------------------------------------------------------------------------------|
 B|--------------------------------------------------------------------------------------------------|
                                                                                         
          x2
            
Hard to play? Try these video lessons and learn fast. | Correct




comments powered by Disqus
↑ Back to top | Tablatures and chords are parodies/interpretations of the original songs. You may use it for private study, scholarship, research or language learning purposes only