» » »

Not The American Average Tabs (ver.1)

Artists:  A B C D E F G H I J K L M N O P Q R S T U V W X Y Z # 

Not The American Average Tabs (ver.1)

Asking Alexandria
Rating:
0/5 (0 votes)

Hard to play? Try these video lessons and learn fast.
                Well this is my first tab.
I don't know if it's 100% but I think It's pretty accurate.
I hope this helps someone.

(0:00-0:11)
Drum Intro


(0:11-0:20)
e|--------------------|
B|--------------------|
G|--------------------|
D|-5p0-0------5p0-000-|
A|-5p0-0------5p0-000-|
D|-5p0-0------5p0-000-|x2


(0:21-0:41)
e|----------------------------------------------------------------------------------------|
B|----------------------------------------------------------------------------------------|
G|------------8p0------------------8p0--------------------8p0-------------------8p0-------|
D|-5p0-0---------8p0----5p0-000-------8p0----5p0-0---{5}-----8p0-----5p0-000-------8p0----|
A|-5p0-0------------8p0-5p0-000----------8p0-5p0-0--------------8p0--5p0-000----------8p0-|
D|-5p0-0----------------5p0-000--------------5p0-0-------------------5p0-000--------------|


e|---------------------------------------------------------------------------|
B|---------------------------------------------------------------------------|
G|------------8p0------------------8p0--------------------8p0----------------|
D|-5p0-0---------8p0----5p0-000-------8p0----5p0-0---{5}-----8p0-----5p0-000-|
A|-5p0-0------------8p0-5p0-000----------8p0-5p0-0--------------8p0--5p0-000-|
D|-5p0-0----------------5p0-000--------------5p0-0-------------------5p0-000-|


(0:43-1:05)
e|----------------------------------------------------------------------------------------|
B|----------------------------------------------------------------------------------------|
G|------------8p0--------------------8p0------------------8p0-------------------8p0-------|
D|-5p0-0---------8p0----5p0-000--{5}----8p0----5p0-0---------8p0-----5p0-000-------8p0----|
A|-5p0-0------------8p0-5p0-000------------8p0-5p0-0------------8p0--5p0-000----------8p0-|
D|-5p0-0----------------5p0-000----------------5p0-0-----------------5p0-000--------------|x2


(1:05-1:07)
e|-------------------xxxx-|
B|-------------------xxxx-|
G|-------------------xxxx-|
D|-000-0--0-000-0--0-xxxx-|
A|-000-0--0-000-0--0-xxxx-|
D|-000-0--0-000-0--0-xxxx-|
   *** *  * *** *  *


(1:07-1:28)
e|---------------------------------------------------|
B|---------------------------------------------------|
G|-7-777777-9-999999-10-101010101010-12-121212121212-|
D|-x-xxxxxx-x-xxxxxx--x--x-x-x-x-x-x--x--x-x-x-x-x-x-|
A|-5-555555-7-777777--8--8-8-8-8-8-8-10-101010101010-|
D|---------------------------------------------------|x4


(1:28-1:51)
e|----------------------------------------------------------------------------------------------|
B|----------------------------------------------------------------------------------------------|
G|---------------------------------------------------------------------------------------7h9h10-|
D|------------------8--------7------------0-----------------8----------------------7h9h10-------|
A|---8-7-8-10-8-7h8-8--8-7h8-7--8-10-8-7--0--8-7-8-10-8-7h8-8--8-7h8---------7h9h10-------------|
D|-00-0-0-0--0-0----8-0-0----7-0-0--------0-0-0-0-0--0-0----8-0-0----0-7h9h10-------------------|
   ** * * *  * *      * *      * *          * * * *  * *      * *    *


e|------------------------------------------------------------------------------------------|
B|------------------------------------------------------------------------------------------|
G|------------------------------------------------------------------------------------------|
D|------------------------8-----------7---------------0-----------------------8-------------|
A|---12-10-12-13-12-10h12-8--12-10h12-7--12-13-12-10--0--12-10-12-13-12-10h12-8--12-10h12---|
D|-00--0--0--0--0--0------8-0--0------7-0--0----------0-0--0--0--0--0--0------8-0--0------0-|
   **  *  *  *  *  *        *  *        *  *            *  *  *  *  *  *        *  *     
*


  -------------------------------------------------------------------------------|
  -------------------------------------------------------------------------------|
  -------------------7h9h10------------------------------------------------------|
  -------------7h9h10-----------------------------------------------------0---0~-|
  -------7h9h10-------------5h8p5h8p5h8p5h8(trill)-4h7p4h7p4h7p4h7(trill)-0---0~-|
  -7h9h10-----------------------------------------------------------------0---0~-|
                                                                          *

(1:51-2:09)
Break

You stupid f**king WHORE!


(2:09-2:41)
e|-----------------------------------------------------------------|
B|-----------------------------------------------------------------|
G|-----------------------------------------------------------------|
D|-00----0-000-000-0-0000----0-0-00000-000-000-0-0000----0-0-00000-|
A|-00----0-000-000-0-0000----0-0-00000-000-000-0-0000----0-0-00000-|
D|-00----0-000-000-0-0000----0-0-00000-000-000-0-0000----0-0-00000-|
   **    * *** **  * ****      * ***** *** **  * ****      * *****


  ----------------------------------------|
  ----------------------------------------|
  ----------------------------------------|
  -000-0000000000--------0-000-0000000000-|
  -000-0000000000--------0-000-0000000000-|
  -000-0000000000--------0-000-0000000000-|
   *** **********        * *** **********


e|-----------------------------------------------------------------|
B|-----------------------------------------------------------------|
G|-----------------------------------------------------------------|
D|-00----0-000-000-0-0000----0-0-00000-000-000-0-0000----0-0-00000-|
A|-00----0-000-000-0-0000----0-0-00000-000-000-0-0000----0-0-00000-|
D|-00----0-000-000-0-0000----0-0-00000-000-000-0-0000----0-0-00000-|
   **    * *** **  * ****      * ***** *** **  * ****      * *****


  ---------------------------------------------------|
  ---------------------------------------------------|
  ---------------------------------------------------|
  -000-0000000000--------0-000-0000000000----00---0~-|
  -000-0000000000--------0-000-0000000000----00---0~-|
  -000-0000000000--------0-000-0000000000----00---0~-|
   *** **********        * *** **********    **


(2:41-3:50)
Break


(3:50-3:56)
e|----------------------------------|
B|----------------------------------|
G|----------------------------------|
D|-00--00----000--00--00--00----000-|
A|-00--00----000--00--00--00----000-|
D|-11--11----111--11--11--11----111-|
   **  **    ***  **  **  **    ***


TEN INCH!


(3:58-4:21)
e|----------------------------------------------------------------------------|
B|----------------------------------------------------------------------------|
G|----------------------------------------------------------------------------|
D|-00~------000~--00~--00~------000~--00~--00--00---000--00--00--00---000--00-|
A|-00~------000~--00~--00~------000~--00~--00--00---000--00--00--00---000--00-|
D|-00~------000~--00~--00~------000~--00~--00--00---000--00--00--00---000--00-|
   **       ***   **   **       ***   **   **  **   ***  **  **  **   ***  **


e|--------------------------------------------|
B|--------------------------------------------|
G|--------------------------------------------|
D|-00~------000~--00~--00~------000~--00~--00-|
A|-00~------000~--00~--00~------000~--00~--00-|
D|-11~------111~--11~--11~------111~--11~--00-|
   **       ***   **   **       ***   **   **


(4:26-4:36)
e|----------------------------------------------------------------|
B|----------------------------------------------------------------|
G|----------------------------------------------------------------|
D|-00~------------000~----00~----00~------------000~----00~----00-|
A|-00~------------000~----00~----00~------------000~----00~----00-|
D|-11~------------111~----11~----11~------------111~----11~----00-|
   **             ***     **     **             ***     **     **

THE END
I hope you enjoyed it!

KEY:
* = Palm Mute
~ = Let Note Ring Out
h = Hammer-On
p = Pull-Off
x = Mute Note
{} = Natural Harmonic
            
Hard to play? Try these video lessons and learn fast. | Correct




comments powered by Disqus
↑ Back to top | Tablatures and chords are parodies/interpretations of the original songs. You may use it for private study, scholarship, research or language learning purposes only