>
 >
Closure

Closure Guitar Tabs

Asking Alexandria - Closure chords, tabs, tablatures, lyrics

Guitar lessons | Add/correct | Request | Top 50 tabs Artists:  A B C D E F G H I J K L M N O P Q R S T U V W X Y Z 0-9

Closure Guitar Tabs – Asking Alexandria

CD, Sheet music, Poster

Do you like Closure? Share with your friends now
Bass TabsChordsTabsUkulele
Asking Alexandria
Reckless & Relentless

Drop C

.=Palm mutes
^=whammy bar
h=hammer on
p=pull off

Here's a cover of the song so you can hear what sounds like: 

|--------------------------------------------------------------|
|--------------------------------------------------------------|
|--------------------------------------------------------------|
|--------------------------------------------------------------|
|--0--0-0---0-0---0-0-0-0---0-0----0--0-0---0-0---0-0-0--0-0-0-|
|--0--0-0---0-0---0-0-0-0---0-0----0--0-0---0-0---0-0-0--0-0-0-|
   .  . .   . .   . . . .   . .    .  . .   . .   . . .  . . .

|-----------------------------------------------------------------|
|-----------------------------------------------------------------|
|-----------------------------------------------------------------|
|-----------------------------------------------------------------|
|--0--0-0---0-0---0-0-0-0---0-0----0--0-0---0-0---7-8-7--------10-|
|--0--0-0---0-0---0-0-0-0---0-0----0--0-0---0-0---------10-7-8----|
   .  . .   . .   . . . .   . .    .  . .   . .  
|--------------------------------------------------------------|
|--------------------------------------------------------------|
|--------------------------------------------------------------|
|--------------------------------------------------------------|
|--0--0-0---0-0---0-0-0-0---0-0----0--0-0---0-0---0-0-0--0-0-0-|
|--0--0-0---0-0---0-0-0-0---0-0----0--0-0---0-0---0-0-0--0-0-0-|
   .  . .   . .   . . . .   . .    .  . .   . .   . . .  . . .
|-------------------------------------------------------|
|-------------------------------------------------------|
|-------------------------------------------------------|
|-------------------------------------------------------|
|--0--0-0---0-0---0-0-0-0---0-0----0---------0----0-0-0-|
|--0--0-0---0-0---0-0-0-0---0-0----0---------0----0-0-0-|
   .  . .   . .   . . . .   . .    .         .    . . .
|--------------------------------------------------------------|
|--------------------------------------------------------------|
|--------------------------------------------------------------|
|--------------------------------------------------------------|
|--0--0-0---0-0---0-0-0-0---0-0----0--0-0---0-0---0-0-0--0-0-0-|
|--0--0-0---0-0---0-0-0-0---0-0----0--0-0---0-0---0-0-0--0-0-0-|
   .  . .   . .   . . . .   . .    .  . .   . .   . . .  . . .
|----------------------------------------------------------------|
|----------------------------------------------------------------|
|----------------------------------------------------------------|
|----------------------------------------------------------------|
|--0--0-0---0-0---0-0-0-0---0-0----0--0-0---0-0--7-8-7--------10-|
|--0--0-0---0-0---0-0-0-0---0-0----0--0-0---0-0--------10-7-8----|
   .  . .   . .   . . . .   . .    .  . .   . .
|--------------------------------------------------------------|
|--------------------------------------------------------------|
|--------------------------------------------------------------|
|--------------------------------------------------------------|
|--0--0-0---0-0---0-0-0-0---0-0----0--0-0---0-0---0-0-0--0-0-0-|
|--0--0-0---0-0---0-0-0-0---0-0----0--0-0---0-0---0-0-0--0-0-0-|
   .  . .   . .   . . . .   . .    .  . .   . .   . . .  . . .
|--------------------------------------|
|--------------------------------------|
|--------------------------------------|
|--------------------------------------|
|--0--0-0---0-0---0-0-0-0---0-0----0^--|
|--0--0-0---0-0---0-0-0-0---0-0----0^--|
   .  . .   . .   . . . .   . .

Play x6
|--------------------------------------------------------------------------|
|--------------------------------------------------------------------------|
|--------------------------------------------------------------------------|
|--------------------------------------------------------------------------|
|------8---8-----8------8---8-----8-----------------------10--10--10-8p7h8-|
|--0-0---0---0-0----0-0---0---0-0---0---0-0-8-0-8-0-0-8--0---0---0---------|
   . .   .   . .    . .   .   . .   .   . .   .   . .    .   .   .


|---------------------------------------------------------------------------|
|---------------------------------------------------------------------------|
|--7-7-7-7---7-7--7-7----7-7-7-7---7-7--7-7--7-7-----5-5-5-5---9-9--9-9--9-9|
|--x-x-x-x---x-x--x-x----x-x-x-x---x-x--x-x--x-5-----x-x-x-x---x-x--x-x--x-x|
|--5-5-5-5---5-5--5-5----5-5-5-5---5-5--5-5--5-5-----3-3-3-3---7-7--7-7--7-7|
|---------------------------------------------------------------------------|

|----------------------------------------------------------------|
|----------------------------------------------------------------|
|---10-10-10-10---10-10--10-10--10-10----5-5-5-5---9-9--9-9--9-9-|
|---x--x--x--x----x--x---x--x---x--x-----x-x-x-x---x-x--x-x--x-x-|
|---8--8--8--8----8--8---8--8---8--8-----3-3-3-3---7-7--7-7--7-7-|
|----------------------------------------------------------------|

|--------------------------------------------|
|--------------------------------------------|
|---7------5-----9-----10-----5-----9--------|
|---x-x16--x-x8--x-x8--x-x16--x-x8--x-x8--0~-|
|---5------3-----7-----8------3-----7-----0~-|
|-----------------------------------------0~-|


|----------------------------------------------------------------|
|----------------------------------------------------------------|
|----------------------------------------------------------------|
|----------------------------------------------------------------|
|-0-0---0-0-0-0---0-0---0-0--0-0-0-0---0-0---0-0---0-0-0-0---0-0-|
|-0-0---0-0-0-0---0-0---0-0--0-0-0-0---0-0---0-0---0-0-0-0---0-0-|
  . .   . . . .   . .   . .  . . . .   . .   . .   . . . .   . .

|-1--0-------------0-|
|--------------------|
|-------2-------2----|
|----------3---------|
|--------------------|
|--------------------|

|----------------------------------------------------------------|
|----------------------------------------------------------------|
|----------------------------------------------------------------|
|----------------------------------------------------------------|
|-0-0---0-0-0-0---0-0---0-0--0-0---0-0-0---0-0---0-0-0-0---0-0---|
|-0-0---0-0-0-0---0-0---0-0--0-0---1-1-1---0-0---0-0-0-0---0-0---|
  . .   . . . .   . .   . .  . .   . . .   . .   . . . .   . .

|-1--0-------------0-|
|--------------------|
|-------2-------2----|
|----------3---------|
|--------------------|
|--------------------|

|---------------------------------------------------------------------|
|---------------------------------------------------------------------|
|---------------------------------------------------------------------|
|---------------------------------------------------------------------|
|-0-0~---0-0-0-0~---0-0~---0-0~--0-0~---0-0-0---0-0---0-0-0-0---0-0---|
|-0-0~---0-0-0-0~---0-0~---0-0~--0-0~---1-1-1---0-0---0-0-0-0---0-0---|
  . .    . . . .    . .    . .   . .    . . .   . .   . . . .   . .

|-1--0-------------0-|
|--------------------|
|-------2-------2----|
|----------3---------|
|--------------------|
|--------------------|

|----------------------------------------------------------------|
|----------------------------------------------------------------|
|----------------------------------------------------------------|
|----------------------------------------------------------------|
|-0-0---0-0-0-0---0-0---0-0--0-0---0-0-0---0-0---0-0-0-0---0-0---|
|-0-0---0-0-0-0---0-0---0-0--0-0---1-1-1---0-0---0-0-0-0---0-0---|
  . .   . . . .   . .   . .  . .   . . .   . .   . . . .   . .

|-1--0-------------0---------------------|
|----------------------------------------|
|-------2-------2------------------------|
|----------3--------------------------0~-|
|----------------------0-0--0-0--0-0--0~-|
|----------------------1-1--1-1--1-1--0~-|
                       . .  . .  . .
Play x2
|---------------------------------------|
|---------------------------------------|
|---------------------------------------|
|--0~---------10~---------8~--------8~--|
|--0~---------10~---------8~--------8~--|
|--0~---------10~---------8~--------8~--|

|-----------------------------------------------------------|
|-----------------------------------------------------------|
|--7-7----7--7--7--7--7--7--7-----9-9---9--9--9--9--9--9--9-|
|--x-x----x--x--x--x--x--x--x-----x-x---x--x--x--x--x--x--x-|
|--5-5----5--5--5--5--5--5--5-----7-7---7--7--7--7--7--7--7-|
|-----------------------------------------------------------|

|------------------------------------------------------------|
|------------------------------------------------------------|
|--10-10---10--10--10--10--10--10--10-----10-10---10--10--10-|
|--x--x----x---x---x---x---x---x---x------x--x----x---x---x--|
|--8--8----8---8---8---8---8---8---8------8--8----8---8---8--|
|------------------------------------------------------------|

|--------|
|--------|
|-999999-|
|-xxxxxx-|
|-777777-|
|--------|

|-----------------------------------------------------------|
|-----------------------------------------------------------|
|--7-7----7--7--7--7--7--7--7-----9-9---9--9--9--9--9--9--9-|
|--x-x----x--x--x--x--x--x--x-----x-x---x--x--x--x--x--x--x-|
|--5-5----5--5--5--5--5--5--5-----7-7---7--7--7--7--7--7--7-|
|-----------------------------------------------------------|

|------------------------------------------------------------|
|------------------------------------------------------------|
|--10-10---10--10--10--10--10--10--10-----10-10---10--10--10-|
|--x--x----x---x---x---x---x---x---x------x--x----x---x---x--|
|--8--8----8---8---8---8---8---8---8------8--8----8---8---8--|
|------------------------------------------------------------|

|------------|
|------------|
|-999999-----|
|-xxxxxx--0~-|
|-777777--0~-|
|---------0~-|

|---------------------------------------------|
|---------------------------------------------|
|---------------------------------------------|
|---------------------------------------------|
|----------------------0-0--0-0-0---0--0----0-|
|--0-0-0-0-0-0-0-0-----0-0--0-0-0---0--0----0-|
                       . .  . . .   .  .    .
|----------------------------------|
|----------------------------------|
|----------------------------------|
|----------------------------------|
|-------------------0-0-0---0----0-|
|-0-0-0-0-0-0-0-0---0-0-0---0----0-| 
                    . . .   .    .

|---------------------------------------------|
|---------------------------------------------|
|---------------------------------------------|
|---------------------------------------------|
|----------------------0-0--0-0-0---0--0----0-|
|--0-0-0-0-0-0-0-0-----0-0--0-0-0---0--0----0-|
                       . .  . . .   .  .    .
|----------------------------------|
|----------------------------------|
|----------------------------------|
|----------------------------------|
|-------------------0-0-0---0----0-|
|-0-0-0-0-0-0-0-0---0-0-0---0----0-| 
  . . . . . . . .   . . .   .    .

|-----------------------------------------------------|
|-----------------------------------------------------|
|-----------------------------------------------------|
|-----------------------------------------------------|
|-0-0---0-0---0-0-0-0-0-0---0-0---0-0---0-0-0---0-0-0-|
|-0-0---0-0---1-1-1-1-1-1---0-0---0-0---1-1-1---1-1-1-|
  . .   . .   . . . . . .   . .   . .   . . .   . . . 

|-----------------------------------------------------|
|-----------------------------------------------------|
|-----------------------------------------------------|
|-----------------------------------------------------|
|-0-0---0-0---0-0-0-0-0-0---0-0---0-0---0-0-0---0-0-0-|
|-0-0---0-0---1-1-1-1-1-1---0-0---0-0---1-1-1---1-1-1-|
  . .   . .   . . . . . .   . .   . .   . . .   . . . 





Comments


Popular Asking Alexandria tabs & chords
A Candlelit Dinner With Inamorta Bass Tabs
A Single Moment Of Sincerity Bass Tabs
Alerion Bass Tabs
Dear Insanity Bass Tabs
I Used To Have A Best Friend (But Then He Gave Me An Std) Bass Tabs
I Used To Have A Best Friend But Then He Gave Me An Std Bass Tabs
Not The American Average Tabs
The Final Episode Lets Change The Channel Intro Tabs
A Prophecy Ukulele
Someone Somewhere Ukulele


Song lyrics



↑ Back to top | Tablatures and chords are parodies/interpretations of the original songs. You may use it for private study, scholarship, research or language learning purposes only
© 2014 AZChords.com Contact us | Privacy policy | DMCA | Add/correct tabs | Request tabs | Top 50 tabs