» » »

I D Do Anything Tabs (ver.1)

Artists:  A B C D E F G H I J K L M N O P Q R S T U V W X Y Z # 

I D Do Anything Tabs (ver.1)

Simple Plan
Rating:
0/5 (0 votes)

Tabs too difficult? Try these video lessons and learn fast.
                --------------2-2-2-2---------------------------------------------------------
----4-7---6-9-2-2-2-2---------------------------------------------------------
--5-----7-----0-0-0-0---------------------------------------------------------
That's the intro thingy...play that 3 times 

----7-6-7---7-6-7--4--7-6-7----4-7---6-9--------------------------------------
-----------------------------5-----7------------------------------------------
--5-------4-------------------------------------------------------------------
"another day...goin by..thinkin about you all the time" play that a few 

----7-6-7---7-6-7---7-6-7--2-2-2-2--------------------------------------------
--2-------4-------5--------2-2-2-2--------------------------------------------
---------------------------0-0-0-0--------------------------------------------
"This could be...." 
 

-7-7------------2-2-2-2-4-4-4-4-----------------------------------------------
-7-7---7-7-7-7--2-2-2-2-4-4-4-4-----------------------------------------------
-5-5---7-7-7-7--0-0-0-0-2-2-2-2-----------------------------------------------
-------5-5-5-5----------------------------------------------------------------
that's the chorus 

---6-4-6---6-4-6---6-4-6------------------------------------------------------
-----------------5----------4--7----6--9--------------------------------------
--------------------------5-------7-------------------------------------------
-5-------4--------------------------------------------------------------------
here's what the second guitar plays during the second verse... 

---6-4-6---6-4-6---6-4-6---6-4-6---------6-4-6---6-4-6------------------------
--------------------------------------------------------2-2-2-2---------------
-2-------4-------5-------7-------7-5-4-2-------4--------2-2-2-2---------------
--------------------------------------------------------0-0-0-0---------------
continued 

-2--0--0--2-|--0--------------------------------------------------------------
-3--2--0--2-|--0--------------------------------------------------------------
-2--2--1--2-|--1-7-7----------------------------------------------------------
-0--2--2--4-|--2-7-7----------------------------------------------------------
----0--2--4-|--2-5-5----------------------------------------------------------
-------0--2-|--0--------------------------------------------------------------
here's the bridge...lots of effects and ***...it's the same basic chords. 

-/12---------------12----12----12-12-12-12-12-/12---------------12------12----
----/12/14\10-9-10----10----10----10-10-10-10----/12/14\10-9-10----9-10-------

------12------12-12-12-12-12-12-12-12-12-10-----------------------------------
-9-10----9-10----10-10-10-10-10-10-10-10-10-----7-10---9-12-------------------
----------------------------------------------7------9------7-----------------
            
Tabs too difficult? Try these video lessons and learn fast.


comments powered by Disqus
↑ Back to top | Tablatures and chords are parodies/interpretations of the original songs. You may use it for private study, scholarship, research or language learning purposes only