» » »

A Silver Mt Zion, Mountains Made Of Steam Tabs (ver.1)

Artists:  A B C D E F G H I J K L M N O P Q R S T U V W X Y Z # 

Mountains Made Of Steam Tabs (ver.1)

A Silver Mt Zion Tabs
 Rating:
4.3/5 (6 votes)
Mountains Made Of Steam lessons Tabs too difficult? Try these video lessons and learn fast
1
                ------------------------------------------------------------------------
                             Mountains Made of Steam - A Silver Mt. Zion
------------------------------------------------------------------------

Tuning:EADGBE

  Clean Guitar 1  0:00-4:40
e|--------12--------12--------12-------12-------12-------12-------12---|
B|-----12--------12--------12-------12-------12-------12-------12------|
G|---------------------------------------------------------------------|
D|--10--------10-------------------------------------------------------|
A|----------------------10-------10------------------------------------|
E|-----------------------------------------0--------0--------0---------|

e|------12-------------------------------------------------------------|
B|---12----------------------------------------------------------------|
G|---------------------------------------------------------------------|
D|---------------------------------------------------------------------|
A|---------------------------------------------------------------------|
E|-0-------------------------------------------------------------------|

  
e|--------12--------12--------12-------12-------12-------12-------12---|
B|-----12--------12--------12-------12-------12-------12-------12------|
G|---------------------------------------------------------------------|
D|--10--------10-------------------------------------------------------|
A|----------------------10-------10------------------------------------|
E|-----------------------------------------0--------0--------0---------|

e|------12-------------------------------------------------------------|
B|---12----------------------------------------------------------------|
G|---------------------------------------------------------------------|
D|---------------------------------------------------------------------|
A|---------------------------------------------------------------------|
E|-0-------------------------------------------------------------------|

e|--------12--------12--------12-------12-------12-------12-------12---|
B|-----12--------12--------12-------12-------12-------12-------12------|
G|---------------------------------------------------------------------|
D|--10--------10-------------------------------------------------------|
A|----------------------10-------10------------------------------------|
E|-----------------------------------------0--------0--------0---------|

e|------12-------------------------------------------------------------|
B|---12----------------------------------------------------------------|
G|---------------------------------------------------------------------|
D|---------------------------------------------------------------------|
A|---------------------------------------------------------------------|
E|-0-------------------------------------------------------------------|

e|--------12--------12--------12-----14-12-------12-------12------15-14|
B|-----12--------12--------12----------------12-------12-------12------|
G|---------------------------------------------------------------------|
D|--10--------10-------------------------------------------------------|
A|----------------------10-------10------------------------------------|
E|-----------------------------------------0--------0--------0---------|



  Clean Guitar 2  0:00-4:40
e|---------------------------------------------------------------------|
B|----------7-------------7-------------7------------8-7---------------|
G|------9-9---9-------9-9---9-------9-9---9------9-9-------------------|
D|---10-------------------------9------------9-------------------------|
A|---------------10----------------------------------------------------|
E|---------------------------------------------------------------------|


  Distorted Guitar  4:40-5:24
e|-----------------------12--------------------------------------------|
B|-12-12--------------12-----------------------------------------------|
G|-------12-12---------------------------------------------------------|
D|-------------14------------------------------------------------------|
A|---------------------------------------------------------------------|
E|---------------------------------------------------------------------|

  Distorted Guitar  5:24-6:14
e|-14^-12---14^-12---10-12---------------------------------------------|
B|--------------------------12-----------------------------------------|
G|---------------------------------------------------------------------|
D|---------------------------------------------------------------------|
A|---------------------------------------------------------------------|
E|---------------------------------------------------------------------|

  Distorted Guitar  5:24-6:14 Last Time
e|-14^-12---14^-12---10-12---------------------------------------------|
B|--------------------------12-10-8------------------------------------|
G|---------------------------------------------------------------------|
D|---------------------------------------------------------------------|
A|---------------------------------------------------------------------|
E|---------------------------------------------------------------------|

There are no guitars on the last 3:14 of the song.

| /  slide up
| \  slide down
| h  hammer-on
| p  pull-off
| ~  vibrato
| +  harmonic
| x  Mute note
===============================================================================
            
Submit corrections

comments powered by Disqus
↑ Back to top | A Silver Mt Zion Tabs for Mountains Made Of Steam. Lyrics for acoustic guitar and electric guitar. 1 Tablatures and chords are parodies/interpretations of the original songs. You may use it for private study, scholarship, research or language learning purposes only