» » »

A Silver Mt Zion, Horses In The Sky Tabs (ver.1)

Artists:  A B C D E F G H I J K L M N O P Q R S T U V W X Y Z # 

Horses In The Sky Tabs (ver.1)

A Silver Mt Zion Tabs
Rating:
5/5 (2 votes)
Horses In The Sky lessons Tabs too difficult? Try these video lessons and learn fast
                -------------------------------------------------------------------------------
-------------------------------------------------------------------------------

A Silver Mt Zion's Horses In The Sky from the self-titled album.
I tried to make the tab as easy as possible so everyone is able to play this great song. Enjoy!

It's capo 4th.

Intro :

e|---------------------------------------------------------------------------|
B|--1-----------1-----------1-----------1------------------------------------|
G|-----2-----------2-----------2-----------2---------------------------------|
D|---------------------------------------------------------------------------|
A|--0-----0-----0-----0-----0-----0-----0-----0------------------------------|
E|---------------------------------------------------------------------------|

"Oh my broken lamb..."

e|---------------------------------------------------------------------------|
B|--1-----------1-----------0-----------0-----------0-----------0------------|
G|-----2-----------2---------------------------------------------------------|
D|-----------------------------2-----------2-----------2-----------2---------|
A|--0-----0-----0-----0------------------------------------------------------|
E|--------------------------3-----3-----3-----3-----0-----0-----0-----0------|

Here is the main part, repeated many times

e|--------------------------0-----------0------------------------------------|
B|--1-----------1--------------1-----------1--------0-----------0------------|
G|-----2-----------2-----------------------------------0-----------0---------|
D|---------------------------------------------------------------------------|
A|--0-----0-----0-----0-----3-----3-----3-----3------------------------------|
E|--------------------------------------------------3-----3-----3-----3------|

e|---------------------------------------------------------------------------|
B|--1-----------1-----------0-----------0-----------1-----------1------------|
G|-----2-----------2-----------------------------------2-----------2---------|
D|-----------------------------2-----------2---------------------------------|
A|--0-----0-----0-----0-----------------------------0-----0-----0-----0------|
E|--------------------------0-----0-----0-----0------------------------------|

e|---------------------------------------------------------------------------|
B|--0-----------0-----------0-----------0------------------------------------|
G|-----0-----------0---------------------------------------------------------|
D|-----------------------------2-----------2---------------------------------|
A|---------------------------------------------------------------------------|
E|--3-----3-----3-----3-----0-----0-----0-----0------------------------------|

When he sings : "Where no-one cares at all", there is a little variation, it goes like this:

e|---------------------------------------------------------------------------|
B|--1-----------0------------------------------------------------------------|
G|-----2-----------0--------2-----------2-----------2-----------2------------|
D|-----------------------------3-----------3-----------3-----------3---------|
A|--0-----0------------------------------------------------------------------|
E|--------------3-----3-----1-----1-----1-----1-----1-----1-----1-----1------|

e|---------------------------------------------------------------------------|
B|--1-----------1-----------0-----------0-----------0-----------0------------|
G|-----2-----------2-----------0-----------0---------------------------------|
D|-----------------------------------------------------2-----------2---------|
A|--0-----0-----0-----0------------------------------------------------------|
E|--------------------------3-----3-----3-----3-----0-----0-----0-----0------|

And then back to main part

"And manifest the daydream..."

e|--0-----------0-----------2-----------2------------------------------------|
B|-----1-----------1-----------3-----------3--------0-----------0------------|
G|-----------------------------------------------------0-----------0---------|
D|--------------------------0-----0-----0-----0------------------------------|
A|--3-----3-----3-----3------------------------------------------------------|
E|--------------------------------------------------3-----3-----3-----3------|

e|--------------------------0-----------0-----------2-----------2------------|
B|--1-----------1--------------1-----------1-----------3-----------3---------|
G|-----2-----------2---------------------------------------------------------|
D|--------------------------------------------------0-----0-----0-----0------|
A|--0-----0-----0-----0-----3-----3-----3-----3------------------------------|
E|---------------------------------------------------------------------------|

e|---------------------------------------------------------------------------|
B|--1-----------0------------------------------------------------------------|
G|-----2-----------0--------2-----------2-----------2-----------2------------|
D|-----------------------------3-----------3-----------3-----------3---------|
A|--0-----0------------------------------------------------------------------|
E|--------------3-----3-----1-----1-----1-----1-----1-----1-----1-----1------|

"Blow words between..."

e|---------------------------------------------------------------------------|
B|--1-----------1-----------0-----------0-----------0-----------0------------|
G|-----2-----------2-----------0-----------0---------------------------------|
D|-----------------------------------------------------2-----------2---------|
A|--0-----0-----0-----0------------------------------------------------------|
E|--------------------------3-----3-----3-----3-----0-----0-----0-----0------|

e|--------------------------0-----------0------------------------------------|
B|--1-----------1--------------1-----------1--------0-----------0------------|
G|-----2-----------2-----------------------------------0-----------0---------|
D|---------------------------------------------------------------------------|
A|--0-----0-----0-----0-----3-----3-----3-----3------------------------------|
E|--------------------------------------------------3-----0-----3-----3------|

"Please be well...", repeated

e|---------------------------------------------------------------------------|
B|--1-----------0------------------------------------------------------------|
G|-----2-----------0--------2-----------2------------------------------------|
D|-----------------------------3-----------3---------------------------------|
A|--0-----0------------------------------------------------------------------|
E|--------------3-----3-----1-----1-----1-----1------------------------------|

And then : 

e|---------------------------------------------------------------------------|
B|---------------------------------------------------------------------------|
G|--2-----------2-----------2-----------2-----------1-----------1------------|
D|-----3-----------3-----------3-----------3-----------2-----------2---------|
A|---------------------------------------------------------------------------|
E|--1-----1-----1-----1-----1-----1-----1-----1-----0-----0-----0-----0------|

e|---------------------------------------------------------------------------|
B|---------------------------------------------------------------------------|
G|--1-----------1------------------------------------------------------------|
D|-----2-----------2---------------------------------------------------------|
A|---------------------------------------------------------------------------|
E|--0-----0-----0-----0------------------------------------------------------|

"And all I true love...", repeated until the end

e|---------------------------------------------------------------------------|
B|-----1--------1--------0--------0--------------------------0--------0------|
G|--------2--------2--------0--------0-----3--------3-----------0--------0---|
D|--------------------------------------------3--------3---------------------|
A|--0--------0---------------------------------------------------------------|
E|--------------------3--------3--------0--------0--------3--------3---------|

Good luck!
            

comments powered by Disqus
↑ Back to top | A Silver Mt Zion Tabs for Horses In The Sky. Lyrics for acoustic guitar and electric guitar. Tablatures and chords are parodies/interpretations of the original songs. You may use it for private study, scholarship, research or language learning purposes only