» » »

God Bless Our Dead Marines Tabs (ver.1)

Artists:  A B C D E F G H I J K L M N O P Q R S T U V W X Y Z # 

God Bless Our Dead Marines Tabs (ver.1)

A Silver Mt Zion
Rating:
0/5 (0 votes)

Hard to play? Try these video lessons and learn fast.
                (Intro)


Standard Tuning

h=hammer on

e---------------------------------|
b---------------------------------|
g---------------------------------|
d---------------------------2-----|
a--0--2--3--2--0---0--2--3-----2--|
E---------------------------------|

e----------------------------------------|
b----------------------------------------|
g----------------------------------------|
d----------------------------------------|
a--0--2--3--2--0--------2--3--2--0-------|
E-----------------3--0--------------3h5--|

That is all I have on this song.  
I will return to edit this once I figure out more.

Remember, that is verse 2 of the song, "Vulagar Kings".
            
Hard to play? Try these video lessons and learn fast. | Correct




comments powered by Disqus
↑ Back to top | Tablatures and chords are parodies/interpretations of the original songs. You may use it for private study, scholarship, research or language learning purposes only