» » »

A Silver Mt Zion, 13 Blues For 12 Moons Tabs (ver.1)

Artists:  A B C D E F G H I J K L M N O P Q R S T U V W X Y Z # 

13 Blues For 12 Moons Tabs (ver.1)

A Silver Mt Zion Tabs
 Rating:
4/5 (4 votes)
13 Blues For 12 Moons lessons Tabs too difficult? Try these video lessons and learn fast
1
                ------------------------------------------------------------------------
                             13 Blues for 13 Moons - A Silver Mt. Zion
------------------------------------------------------------------------

Tuning:EADGBE

  Both guitars 1:38-5:00
e|---------------------------------------------------------------------|
B|---------------------------------------------------------------------|
G|---------------------------------------------------------------------|
D|-7-5-7---------------------------------------------------------------|
A|-5-3-5---------------------------------------------------------------|
E|---------------------------------------------------------------------|

  Last Time 
e|---------------------------------------------------------------------|
B|---------------------------------------------------------------------|
G|---------------------------------------------------------------------|
D|-7-5-2---------------------------------------------------------------|
A|-5-3-0---------------------------------------------------------------|
E|---------------------------------------------------------------------|

  5:12-5:35
e|---------------------------------------------------------------------|
B|---------------------------------------------------------------------|
G|---------------5-4---2-5---------------------------------------------|
D|-2-4-5-5-4-2---3-2-5-0-3---------------------------------------------|
A|-0-2-3-3-2-0-5-----3-------5-3-2-------------------------------------|
E|-------------3-------------3-1-0-------------------------------------|

  Guitar 1 5:35-15:46
e|---------------------------------------------------------------------|
B|---------------------------------------------------------------------|
G|-----------0-3p0-----------------------------------------------------|
D|-------0---------3-0-------------------------------------------------|
A|-3-0-3---------------------------------------------------------------|
E|---------3-----------------------------------------------------------|

e|---------------------------------------------------------------------|
B|---------------------------------------------------------------------|
G|-----------0---------------------------------------------------------|
D|-------0-----3p0-----------------------------------------------------|
A|-3-0-3-------------0-------------------------------------------------|
E|---------3-------3---------------------------------------------------|

  Guitar 2 7:07-7:24
e|---------------------------------------------------------------------|
B|---------------------------------------------------------------------|
G|-----------0-3p0---0-------------------------------------------------|
D|-----------------3-0-------------------------------------------------|
A|-x-x-x---------------------------------------------------------------|
E|---------------------------------------------------------------------|

  Guitar 2 8:37-9:11
e|---------------------------------------------------------------------|
B|-10-10-10-10-8-8-8-8-8-----------------------------------------------|
G|---------------------------------------------------------------------|
D|---------------------------------------------------------------------|
A|---------------------------------------------------------------------|
E|---------------------------------------------------------------------|

  Guitar 2 11:58-12:40
e|---------------------------------------------------------------------|
B|---------------------------------------------------------------------|
G|---------------------------------------------------------------------|
D|---0-3---0-3-0-------------------------------------------------------|
A|-3-----3-------------------------------------------------------------|
E|---------------------------------------------------------------------|


| /  slide up
| \  slide down
| h  hammer-on
| p  pull-off
| ~  vibrato
| +  harmonic
| x  Mute note
===============================================================================
            
Submit corrections

comments powered by Disqus
↑ Back to top | A Silver Mt Zion Tabs for 13 Blues For 12 Moons. Lyrics for acoustic guitar and electric guitar. 1 Tablatures and chords are parodies/interpretations of the original songs. You may use it for private study, scholarship, research or language learning purposes only