» » »

A Silent Film, You Will Leave A Mark Tabs (ver.1)

Artists:  A B C D E F G H I J K L M N O P Q R S T U V W X Y Z # 

You Will Leave A Mark Tabs (ver.1)

A Silent Film Tabs
Rating:
4/5 (3 votes)
You Will Leave A Mark lessons Tabs too difficult? Try these video lessons and learn fast
                You Will Leave A Mark – A Silent Film

CHORDS:

    D    F#m   D2/F#   D/A    E    E/C#m  
e|--2--|--2--|---0---|--0--|--0--|---0---| 
B|--3--|--2--|---3---|--2--|--0--|---2---| 
G|--2--|--2--|---2---|--2--|--1--|---1---| 
D|--0--|--4--|---0---|--0--|--2--|---2---| 
A|--0--|--4--|---0---|--0--|--2--|---2---| 
E|--0--|--2--|---2---|--2--|--0--|---0---| 

  E7/C#m   E7    E7(2)   D2     D/F#
E|---0---|--0--|---0---|--0--|---2---|
B|---2---|--0--|---3---|--3--|---3---|
G|---1---|--1--|---1---|--2--|---2---|
D|---0---|--0--|---2---|--0--|---0---|
A|---2---|--2--|---2---|--0--|---0---|
E|---0---|--0--|---0---|--0--|---2---|


INTRO:  (For guitar... normally done on piano)

e|--x-x-x--x-x-x--x-x-x--x-x-x--x-x-x--x-x-x--x-x-x--x-x-x--|
B|--x-x-x--x-x-x--x-x-x--x-x-x--x-x-x--x-x-x--x-x-x--2-2-0--|
G|--x-x-x--x-x-x--2-2-2--2-2-2--1-1-1--1-1-1--1-1-1--1-1-1--| 
D|--0-0-0--0-0-0--4-4-4--4-4-4--2-2-2--2-2-2--0-0-0--0-0-0--| 
A|--0-0-0--0-0-2--0-0-4--5-5-4--2-2-2--2-2-2--2-2-2--2-2-2--|
E|--2-2-2--2-2-4--x-x-x--x-x-x--x-x-x--x-x-x--x-x-x--x-x-x--|

e|--x-x-x--x-x-x--x-x-x--x-x-x--x-x-x--x-x-x--x-x-x--x------|
B|--x-x-x--x-x-x--x-x-x--x-x-x--x-x-x--x-x-x--x-x-x--x------|
G|--x-x-x--x-x-x--2-2-2--2-2-2--1-1-1--1-1-1--1-1-1--1------|
D|--0-0-0--0-0-0--4-4-4--4-4-4--2-2-2--2-2-2--2-2-2--2------|
A|--0-0-0--0-0-2--0-0-4--5-5-4--2-2-2--2-2-2--2-2-2--2------|
E|--2-2-2--2-2-4--x-x-x--x-x-x--x-x-x--x-x-x--x-x-x--x------|

e|--x-x-x--x-x-x--x-x-x--x-x-x--x-x-x--x-x-x--x-x-x--x-x-x--|
B|--x-x-x--x-x-x--x-x-x--x-x-x--x-x-x--x-x-x--x-x-x--2-2-0--|
G|--x-x-x--x-x-x--2-2-2--2-2-2--1-1-1--1-1-1--1-1-1--1-1-1--|
D|--0-0-0--0-0-0--4-4-4--4-4-4--2-2-2--2-2-2--0-0-0--0-0-0--|
A|--0-0-0--0-0-2--0-0-4--5-5-4--2-2-2--2-2-2--2-2-2--2-2-2--|
E|--2-2-2--2-2-4--x-x-x--x-x-x--x-x-x--x-x-x--x-x-x--x-x-x--|

e|--x-x-x--x-x-x--x-x-x--x-x-x--x-x-x--x-x-x--x-x-x--x------|
B|--x-x-x--x-x-x--x-x-x--x-x-x--x-x-x--x-x-x--x-x-x--x------|
G|--x-x-x--x-x-x--2-2-2--2-2-2--1-1-1--1-1-1--1-1-1--1------|
D|--0-0-0--0-0-0--4-4-4--4-4-4--2-2-2--2-2-2--2-2-2--2------|
A|--0-0-0--0-0-2--0-0-4--5-5-4--2-2-2--2-2-2--2-2-2--2------|
E|--2-2-2--2-2-4--x-x-x--x-x-x--x-x-x--x-x-x--x-x-x--x------|



VERSE 1:

D
I am so ashamed 

F#m     D2/F#              E
I am so ashamed of all the trouble I have caused 

    E/C#m                  E     D
and I am so ashamed of all these unopened doors 

F#m     D2/F#           E7                E7/C#m
I am so ashamed of what I have become 



CHORUS:

     D2          D2/F#      D/F#     E
That oh... my... heart.. is bursting again 

E/C#m    E7(2)    E/C#m   D2
Don't... leave... this... mark

        D2/F#      D/F#    E7       E7(2)
Your... eyes.. are turning away 



INTER:

[Intro Line 1]
Ooooooohh, aaaaaaaahh 



VERSE 2:

D
I am of the west 

F#m                D2/F#       E
I am fair skinned, I deserve a bullet in my chest 

             E/C#m        E  D
If I have no religion and no reason to be scared 

   F#m           D2/F#       E7                E7(2)
If I am going to hell then I just dont care 



CHORUS


INTER (x2)


CHORUS


INTER (x2)



I played & sang this live (as tabbed here) with only 1 guitar and it sounded awesome!
It seemed complicated at first, but it's mostly really slight variations of standard chords.

The intro is the closest I could come to the original piano part using a standard tuned guitar.
Have fun!

Cheers, 
hvmtl2
            

comments powered by Disqus
↑ Back to top | A Silent Film Tabs for You Will Leave A Mark. Lyrics for acoustic guitar and electric guitar. Tablatures and chords are parodies/interpretations of the original songs. You may use it for private study, scholarship, research or language learning purposes only