» » »

A Silent Film, Thirteen Times The Strength Bass tabs (ver.1)

Artists:  A B C D E F G H I J K L M N O P Q R S T U V W X Y Z # 

Thirteen Times The Strength Bass tabs (ver.1)

A Silent Film Tabs
Rating:
0/5 (0 votes)
Thirteen Times The Strength lessons Tabs too difficult? Try these video lessons and learn fast
                Intro/Chorus
G|----------------------------|
D|----------------------------|
A|-8(x16)-------6(x16)--------|
E|-------4(x16)--------6(x16)-|

Verse 1
    x3                             then
G|-------------------------------|-------------------------------|
D|-------------------------------|-------------------------------|
A|----------------6666-6-666-666-|-------------------------------|
E|-8888-8-888-888----------------|-8888-8-888-888-6666-6-666-666-|

Pre Chorus
G|--------------------------------------------------------------------|
D|------------------------------------------------------8888-8888-888-|
A|-8888-8888-888-8888-8888-888-10101010-10101010-101010---------------|
E|--------------------------------------------------------------------|

G|-----------------------------------------------------------------|
D|---------------------------------------------------------8888888-|
A|-8888-8888-888-8888-8888-888-6666-6666-666-----------------------|
E|-------------------------------------------6666-6666-666---------|

Verse 2
G|---------------------------------|
D|-8888-88-8888-88-8888-88-8888-88-|
A|---------------------------------|
E|---------------------------------|

G|----------------------------------------------------------------------|
D|----------------------------------------------------------------------|
A|----------------6666-66/88-8/1010----------------6666-66/1313-13\1010-|
E|-8888-8-888-888------------------8888-8-888-888-----------------------|

G|------------------------------------------------------------------|
D|------------------------------------------------------------------|
A|----------------6666-66/88-8/1010---------------------------------|
E|-8888-8-888-888---------------------8888-8-888-888-6666-6-666-666-|

Bridge (x2)
G|--------------------|
D|-6-(x8)5(x8)-8(x16)-|
A|--------------------|
E|--------------------|

Last chorus 
G|---------------|
D|---------------|
A|-6(x16)--------|
E|--------6(x16)-|

G|----------------------------|
D|----------------------------|
A|-8(x16)-------6(x16)--------|
E|-------4(x16)--------6(x16)-|

G|-----------------------------------------------------|
D|----------------------------------8-6----------8~----|
A|-8888-------6------------6-8-6666-----8-6--------8~--|
E|------4-6-8---4444-4-6-8------------------6666-------|

G|---------------------------------------------|
D|------------------------------------8~-------|
A|-8888-------6------------6-8-6666------6~-8~-|
E|------4-6-8---4444-4-6-8---------------------|
            

comments powered by Disqus
↑ Back to top | A Silent Film Bass for Thirteen Times The Strength. Lyrics for acoustic guitar and electric guitar. Tablatures and chords are parodies/interpretations of the original songs. You may use it for private study, scholarship, research or language learning purposes only