>
 >
Queen Of A Sad Land

Queen Of A Sad Land Guitar Tabs

A Silent Film - Queen Of A Sad Land chords, tabs, tablatures, lyrics

Guitar lessons | Add/correct | Request | Top 50 tabs Artists:  A B C D E F G H I J K L M N O P Q R S T U V W X Y Z 0-9

Queen Of A Sad Land Guitar Tabs – A Silent Film

CD, Sheet music, Poster

Do you like Queen Of A Sad Land? Share with your friends now
Tabs
-------------------------------------------------------------------------------
-------------------------------------------------------------------------------

Tuning: Standard (EADGBe)

Intreptation using Epiphone AJ-500RNS Acoustic Guitar

CHORDS
    G     G5   A7sus   Em7  Cadd9  
e|--3--|--3--|---3---|--3--|--3--| 
B|--3--|--3--|---3---|--3--|--3--| 
G|--0--|--0--|---0---|--0--|--0--| 
D|--0--|--0--|---2---|--0--|--2--| 
A|--2--|--5--|---0---|--2--|--3--| 
E|--3--|--X--|---X---|--0--|--X--| 


"Queen of a Sad Land" by A Silent Film

INTRO 
     G                           G  G                           D       C                      G
e|-------------------------------3-------------------------------------------------------------3-3-3|
B|-------------------------------3-------------------------------------------------------------3-3-3|
G|X--12--12--12--12--12--12--12--0--12--12--12--12--12--12--12--17--17--16--16--16--16--16--16-0-0-0|
D|-------------------------------0-------------------------------------------------------------0-0-0|
A|-------------------------------2-------------------------------------------------------------2-2-2|
E|-------------------------------3-------------------------------------------------------------3-3-3|

   G  G                           D       C                      G
e|-3-------------------------------------------------------------3-3-3-|
B|-3-------------------------------------------------------------3-3-3-|
G|-0--12--12--12--12--12--12--12--17--17--16--16--16--16--16--16-0-0-0-|
D|-0-------------------------------------------------------------0-0-0-|
A|-2-------------------------------------------------------------2-2-2-|
E|-3-------------------------------------------------------------3-3-3-|

   G      G5         G     G5         A7sus  Em7        A7sus  Em7
e|-3-3-3--3-3-3-3-3--3--3--3-3-3-3-3--3-3-3--3-3-3-3-3--3-3-3--3-3-3-3-3-|
B|-3-3-3--3-3-3-3-3--3--3--3-3-3-3-3--3-3-3--3-3-3-3-3--3-3-3--3-3-3-3-3-|
G|-0-0-0--0-0-0-0-0--0--0--0-0-0-0-0--0-0-0--0-0-0-0-0--0-0-0--0-0-0-0-0-|
D|-0-0-0--0-0-0-0-0--0--0--0-0-0-0-0--2-2-2--0-0-0-0-0--2-2-2--0-0-0-0-0-|
A|-2-2-2--5-5-5-5-5--2--2--5-5-5-5-5--0-0-0--2-2-2-2-2--0-0-0--2-2-2-2-2-|
E|-3-3-3--x-x-x-x-x--3--3--x-x-x-x-x--x-x-x--0-0-0-0-0--x-x-x--0-0-0-0-0-|

   G      G5         G     G5         A7sus  Em7        A7sus  Em7
e|-3-3-3--3-3-3-3-3--3--3--3-3-3-3-3--3-3-3--3-3-3-3-3--3-3-3--3-3-3-3-3-|
B|-3-3-3--3-3-3-3-3--3--3--3-3-3-3-3--3-3-3--3-3-3-3-3--3-3-3--3-3-3-3-3-|
G|-0-0-0--0-0-0-0-0--0--0--0-0-0-0-0--0-0-0--0-0-0-0-0--0-0-0--0-0-0-0-0-|
D|-0-0-0--0-0-0-0-0--0--0--0-0-0-0-0--2-2-2--0-0-0-0-0--2-2-2--0-0-0-0-0-|
A|-2-2-2--5-5-5-5-5--2--2--5-5-5-5-5--0-0-0--2-2-2-2-2--0-0-0--2-2-2-2-2-|
E|-3-3-3--x-x-x-x-x--3--3--x-x-x-x-x--x-x-x--0-0-0-0-0--x-x-x--0-0-0-0-0-|


VERSE 1 - (slides, bends, and groove)
  "Queen of.."
   G  G  D               G     D               E            B            E          B
e|-3------------------------------------------------------------------------------------------| 
B|-3------------------------------------------------------------------------------------------| 
G|-0------------------------------------------------------------------------------------------| 
D|-0------------------------------------------------------------------------------------------| 
A|-2------------------------------------------------------------------------------------------| 
E|-3--3--10-10-10-10-10--3--3--10-10-10-10-10--12-12-12-12--7-7--7-7--7--12-12--12--7-7-7-7-7-|

  "Shiver..."
   G       D               G     D               E            B            E      B     G
e|--------------------------------------------------------------------------------------3-3-3-| 
B|--------------------------------------------------------------------------------------3-3-3-| 
G|--------------------------------------------------------------------------------------0-0-0-| 
D|--------------------------------------------------------------------------------------0-0-0-| 
A|--------------------------------------------------------------------------------------2-2-2-| 
E|-3-3--3--10-10-10-10-10--3--3--10-10-10-10-10--12-12-12-12--7-7--7-7--7--12-12--7-7-7-3-3-3-|

  "Kneeling..."
   G  G  D               G     D               E            B            E          B
e|-3------------------------------------------------------------------------------------------| 
B|-3------------------------------------------------------------------------------------------| 
G|-0------------------------------------------------------------------------------------------| 
D|-0------------------------------------------------------------------------------------------| 
A|-2------------------------------------------------------------------------------------------| 
E|-3--3--10-10-10-10-10--3--3--10-10-10-10-10--12-12-12-12--7-7--7-7--7--12-12--12--7-7-7-7-7-|

  "Finger..."
   G       D               G     D               E            B            E      B
e|--------------------------------------------------------------------------------------------| 
B|--------------------------------------------------------------------------------------------| 
G|--------------------------------------------------------------------------------------------| 
D|--------------------------------------------------------------------------------------------| 
A|--------------------------------------------------------------------------------------------| 
E|-3-3--3--10-10-10-10-10--3--3--10-10-10-10-10--12-12-12-12--7-7--7-7--7--12-12--7-7-7-7-7-7-|

                                                                
CHORUS 1
  "Ocean..."   
   Cadd9                            G     G5         G      G5 
e|-3-3-3-3-3-3-3-3-3-3-3-3-3-3-3-3--3--3--3-3-3-3-3--3-3-3--3-3-3-3-3-|
B|-3-3-3-3-3-3-3-3-3-3-3-3-3-3-3-3--3--3--3-3-3-3-3--3-3-3--3-3-3-3-3-|
G|-0-0-0-0-0-0-0-0-0-0-0-0-0-0-0-0--0--0--0-0-0-0-0--0-0-0--0-0-0-0-0-|
D|-2-2-2-2-2-2-2-2-2-2-2-2-2-2-2-2--0--0--0-0-0-0-0--0-0-0--0-0-0-0-0-|
A|-3-3-3-3-3-3-3-3-3-3-3-3-3-3-3-3--2--2--5-5-5-5-5--2-2-2--5-5-5-5-5-|
E|-x-x-x-x-x-x-x-x-x-x-x-x-x-x-x-x--3--3--x-x-x-x-x--3-3-3--x-x-x-x-x-|

  "Frozen..."                                                      
   Cadd9                            G     G5         G      G5 
e|-3-3-3-3-3-3-3-3-3-3-3-3-3-3-3-3--3--3--3-3-3-3-3--3-3-3--3-3-3-3-3-|
B|-3-3-3-3-3-3-3-3-3-3-3-3-3-3-3-3--3--3--3-3-3-3-3--3-3-3--3-3-3-3-3-|
G|-0-0-0-0-0-0-0-0-0-0-0-0-0-0-0-0--0--0--0-0-0-0-0--0-0-0--0-0-0-0-0-|
D|-2-2-2-2-2-2-2-2-2-2-2-2-2-2-2-2--0--0--0-0-0-0-0--0-0-0--0-0-0-0-0-|
A|-3-3-3-3-3-3-3-3-3-3-3-3-3-3-3-3--2--2--5-5-5-5-5--2-2-2--5-5-5-5-5-|
E|-x-x-x-x-x-x-x-x-x-x-x-x-x-x-x-x--3--3--x-x-x-x-x--3-3-3--x-x-x-x-x-|

  "Softly..."
   A7sus            Cadd9            G     G5         G      G5 
e|-3-3-3-3-3-3-3-3--3-3-3-3-3-3-3-3--3--3--3-3-3-3-3--3-3-3--3-3-3-3-3-|
B|-3-3-3-3-3-3-3-3--3-3-3-3-3-3-3-3--3--3--3-3-3-3-3--3-3-3--3-3-3-3-3-|
G|-0-0-0-0-0-0-0-0--0-0-0-0-0-0-0-0--0--0--0-0-0-0-0--0-0-0--0-0-0-0-0-|
D|-2-2-2-2-2-2-2-2--2-2-2-2-2-2-2-2--0--0--0-0-0-0-0--0-0-0--0-0-0-0-0-|
A|-0-0-0-0-0-0-0-0--3-3-3-3-3-3-3-3--2--2--5-5-5-5-5--2-2-2--5-5-5-5-5-|
E|-x-x-x-x-x-x-x-x--x-x-x-x-x-x-x-x--3--3--x-x-x-x-x--3-3-3--x-x-x-x-x-|

  "Sailing..."
   Cadd9
e|-3-3-3-3-3-3-3-3-3-3-3-3-3-3-3-3-|
B|-3-3-3-3-3-3-3-3-3-3-3-3-3-3-3-3-|
G|-0-0-0-0-0-0-0-0-0-0-0-0-0-0-0-0-|
D|-2-2-2-2-2-2-2-2-2-2-2-2-2-2-2-2-|
A|-3-3-3-3-3-3-3-3-3-3-3-3-3-3-3-3-|
E|-x-x-x-x-x-x-x-x-x-x-x-x-x-x-x-x-|


SOLO 1 - (slides, bends, and groove)
                                                    "Queen of..."
e|----------------------------------------------------------------|
B|----------------------------------------------------------------|
G|----------------------------------------------------------------|
D|----------------------------------------------------------------|
A|-5-5-2-5-7-9-9-9--5-5-2-5-7-9-9-9--9--9--9-5-2-2--9--9--9-5-2-2-|
E|----------------------------------------------------------------|

                                                    "Queen of..."
e|----------------------------------------------------------------|
B|----------------------------------------------------------------|
G|----------------------------------------------------------------|
D|----------------------------------------------------------------|
A|-5-5-2-5-7-9-9-9--5-5-2-5-7-9-9-9--9--9--9-5-2-2--9--9--9-5-2-2-|
E|----------------------------------------------------------------|


VERSE 2 - (slides, bends, and groove)
  "Filter.." 
   G  G  D               G     D               E            B            E       B
e|-3---------------------------------------------------------------------------------------| 
B|-3---------------------------------------------------------------------------------------| 
G|-0---------------------------------------------------------------------------------------| 
D|-0---------------------------------------------------------------------------------------| 
A|-2---------------------------------------------------------------------------------------| 
E|-3--3--10-10-10-10-10--3--3--10-10-10-10-10--12-12-12-12--7-7--7-7--7--12--12--7-7-7-7-7-|

  "Shrouding..."
   G       D               G     D               E            B            E      B     G
e|--------------------------------------------------------------------------------------3-3-3-| 
B|--------------------------------------------------------------------------------------3-3-3-| 
G|--------------------------------------------------------------------------------------0-0-0-| 
D|--------------------------------------------------------------------------------------0-0-0-| 
A|--------------------------------------------------------------------------------------2-2-2-| 
E|-3-3--3--10-10-10-10-10--3--3--10-10-10-10-10--12-12-12-12--7-7--7-7--7--12-12--7-7-7-3-3-3-|

  "Heaven..."
   G  G  D               G     D               E            B            E       B
e|-3---------------------------------------------------------------------------------------| 
B|-3---------------------------------------------------------------------------------------| 
G|-0---------------------------------------------------------------------------------------| 
D|-0---------------------------------------------------------------------------------------| 
A|-2---------------------------------------------------------------------------------------| 
E|-3--3--10-10-10-10-10--3--3--10-10-10-10-10--12-12-12-12--7-7--7-7--7--12-12---7-7-7-7-7-|

  "Breath in..."
   G       D               G     D               E            B            E      B           Cadd9
e|--------------------------------------------------------------------------------------------3-3-3-|
B|--------------------------------------------------------------------------------------------3-3-3-|
G|--------------------------------------------------------------------------------------------0-0-0-|
D|--------------------------------------------------------------------------------------------2-2-2-|
A|--------------------------------------------------------------------------------------------3-3-3-|
E|-3-3--3--10-10-10-10-10--3--3--10-10-10-10-10--12-12-12-12--7-7--7-7--7--12-12--7-7-7-7-7-7-x-x-x-|


CHORUS 2
  "Ocean..."                                                 
   Cadd9                            G     G5         G      G5
e|-3-3-3-3-3-3-3-3-3-3-3-3-3-3-3-3--3--3--3-3-3-3-3--3-3-3--3-3-3-3-3-|
B|-3-3-3-3-3-3-3-3-3-3-3-3-3-3-3-3--3--3--3-3-3-3-3--3-3-3--3-3-3-3-3-|
G|-0-0-0-0-0-0-0-0-0-0-0-0-0-0-0-0--0--0--0-0-0-0-0--0-0-0--0-0-0-0-0-|
D|-2-2-2-2-2-2-2-2-2-2-2-2-2-2-2-2--0--0--0-0-0-0-0--0-0-0--0-0-0-0-0-|
A|-3-3-3-3-3-3-3-3-3-3-3-3-3-3-3-3--2--2--5-5-5-5-5--2-2-2--5-5-5-5-5-|
E|-x-x-x-x-x-x-x-x-x-x-x-x-x-x-x-x--3--3--x-x-x-x-x--3-3-3--x-x-x-x-x-|

  "Frozen..."        
   Cadd9                            G     G5         G      G5
e|-3-3-3-3-3-3-3-3-3-3-3-3-3-3-3-3--3--3--3-3-3-3-3--3-3-3--3-3-3-3-3-|
B|-3-3-3-3-3-3-3-3-3-3-3-3-3-3-3-3--3--3--3-3-3-3-3--3-3-3--3-3-3-3-3-|
G|-0-0-0-0-0-0-0-0-0-0-0-0-0-0-0-0--0--0--0-0-0-0-0--0-0-0--0-0-0-0-0-|
D|-2-2-2-2-2-2-2-2-2-2-2-2-2-2-2-2--0--0--0-0-0-0-0--0-0-0--0-0-0-0-0-|
A|-3-3-3-3-3-3-3-3-3-3-3-3-3-3-3-3--2--2--5-5-5-5-5--2-2-2--5-5-5-5-5-|
E|-x-x-x-x-x-x-x-x-x-x-x-x-x-x-x-x--3--3--x-x-x-x-x--3-3-3--x-x-x-x-x-|

  "Softly..."
   A7sus            Cadd9            G     G5         G      G5
e|-3-3-3-3-3-3-3-3--3-3-3-3-3-3-3-3--3--3--3-3-3-3-3--3-3-3--3-3-3-3-3-|
B|-3-3-3-3-3-3-3-3--3-3-3-3-3-3-3-3--3--3--3-3-3-3-3--3-3-3--3-3-3-3-3-|
G|-0-0-0-0-0-0-0-0--0-0-0-0-0-0-0-0--0--0--0-0-0-0-0--0-0-0--0-0-0-0-0-|
D|-2-2-2-2-2-2-2-2--2-2-2-2-2-2-2-2--0--0--0-0-0-0-0--0-0-0--0-0-0-0-0-|
A|-0-0-0-0-0-0-0-0--3-3-3-3-3-3-3-3--2--2--5-5-5-5-5--2-2-2--5-5-5-5-5-|
E|-x-x-x-x-x-x-x-x--x-x-x-x-x-x-x-x--3--3--x-x-x-x-x--3-3-3--x-x-x-x-x-|

  "Send me..."
   Cadd9
e|-3-3-3-3-3-3-3-3-3-3-3-3-3-3-3-3-|
B|-3-3-3-3-3-3-3-3-3-3-3-3-3-3-3-3-|
G|-0-0-0-0-0-0-0-0-0-0-0-0-0-0-0-0-|
D|-2-2-2-2-2-2-2-2-2-2-2-2-2-2-2-2-|
A|-3-3-3-3-3-3-3-3-3-3-3-3-3-3-3-3-|
E|-x-x-x-x-x-x-x-x-x-x-x-x-x-x-x-x-|


SOLO 2 - (slides, bends, and groove)
                                                    "Queen of..."
e|----------------------------------------------------------------|
B|----------------------------------------------------------------|
G|----------------------------------------------------------------|
D|----------------------------------------------------------------|
A|-5-5-2-5-7-9-9-9--5-5-2-5-7-9-9-9--9--9--9-5-2-2--9--9--9-5-2-2-|
E|----------------------------------------------------------------|

                                                    "Queen of..."
e|---------------------------------------------------------------|
B|---------------------------------------------------------------|
G|---------------------------------------------------------------|
D|---------------------------------------------------------------|
A|-5-5-2-5-7-9-9-9--5-5-2-5-7-9-9-9--9--9--9-5-2-2--9--9--10-2-2-|
E|---------------------------------------------------------------|

  "Oh..."                                           "Queen of..."
e|--------------------------------------------------------------|
B|--------------------------------------------------------------|
G|--------------------------------------------------------------|
D|--------------------------------------------------------------|
A|-5-5-2-5-7-9-9-9--5-5-2-5-7-9-9-9--12-12-10-10-10-9-9-9-7-5-5-|
E|--------------------------------------------------------------|

  "Oh..."                                                "Queen of..."
e|----------------------------------------------------------------------|
B|----------------------------------------------------------------------|
G|----------------------------------------------------------------------|
D|----------------------------------------------------------------------|
A|-5-5-2-5-7-9-9-9--5-5-2-5-7-9-9-9-10-12-12-10-10-10-12-12-12-10-10-10-|
E|----------------------------------------------------------------------|


CHORUS 3
  "Ocean..."                                                 
   Csus9                            G     G5         G      G5
e|-3-3-3-3-3-3-3-3-3-3-3-3-3-3-3-3--3--3--3-3-3-3-3--3-3-3--3-3-3-3-3-|
B|-3-3-3-3-3-3-3-3-3-3-3-3-3-3-3-3--3--3--3-3-3-3-3--3-3-3--3-3-3-3-3-|
G|-0-0-0-0-0-0-0-0-0-0-0-0-0-0-0-0--0--0--0-0-0-0-0--0-0-0--0-0-0-0-0-|
D|-2-2-2-2-2-2-2-2-2-2-2-2-2-2-2-2--0--0--0-0-0-0-0--0-0-0--0-0-0-0-0-|
A|-3-3-3-3-3-3-3-3-3-3-3-3-3-3-3-3--2--2--5-5-5-5-5--2-2-2--5-5-5-5-5-|
E|-x-x-x-x-x-x-x-x-x-x-x-x-x-x-x-x--3--3--x-x-x-x-x--3-3-3--x-x-x-x-x-|

  "Frozen..."   
   Csus9                            G     G5         G      G5
e|-3-3-3-3-3-3-3-3-3-3-3-3-3-3-3-3--3--3--3-3-3-3-3--3-3-3--3-3-3-3-3-|
B|-3-3-3-3-3-3-3-3-3-3-3-3-3-3-3-3--3--3--3-3-3-3-3--3-3-3--3-3-3-3-3-|
G|-0-0-0-0-0-0-0-0-0-0-0-0-0-0-0-0--0--0--0-0-0-0-0--0-0-0--0-0-0-0-0-|
D|-2-2-2-2-2-2-2-2-2-2-2-2-2-2-2-2--0--0--0-0-0-0-0--0-0-0--0-0-0-0-0-|
A|-3-3-3-3-3-3-3-3-3-3-3-3-3-3-3-3--2--2--5-5-5-5-5--2-2-2--5-5-5-5-5-|
E|-x-x-x-x-x-x-x-x-x-x-x-x-x-x-x-x--3--3--x-x-x-x-x--3-3-3--x-x-x-x-x-|

  "Softly..."
   A7sus            Cadd9            G     G5         G      G5
e|-3-3-3-3-3-3-3-3--3-3-3-3-3-3-3-3--3--3--3-3-3-3-3--3-3-3--3-3-3-3-3-|
B|-3-3-3-3-3-3-3-3--3-3-3-3-3-3-3-3--3--3--3-3-3-3-3--3-3-3--3-3-3-3-3-|
G|-0-0-0-0-0-0-0-0--0-0-0-0-0-0-0-0--0--0--0-0-0-0-0--0-0-0--0-0-0-0-0-|
D|-2-2-2-2-2-2-2-2--2-2-2-2-2-2-2-2--0--0--0-0-0-0-0--0-0-0--0-0-0-0-0-|
A|-0-0-0-0-0-0-0-0--3-3-3-3-3-3-3-3--2--2--5-5-5-5-5--2-2-2--5-5-5-5-5-|
E|-x-x-x-x-x-x-x-x--x-x-x-x-x-x-x-x--3--3--x-x-x-x-x--3-3-3--x-x-x-x-x-|

  "Send me..."
   Cadd9
e|-3-3-3-3-3-3-3-3-3-3-3-3-3-3-3-3-|
B|-3-3-3-3-3-3-3-3-3-3-3-3-3-3-3-3-|
G|-0-0-0-0-0-0-0-0-0-0-0-0-0-0-0-0-|
D|-2-2-2-2-2-2-2-2-2-2-2-2-2-2-2-2-|
A|-3-3-3-3-3-3-3-3-3-3-3-3-3-3-3-3-|
E|-x-x-x-x-x-x-x-x-x-x-x-x-x-x-x-x-|

   G
e|-3-| 
B|-3-| 
G|-0-| 
D|-0-| 
A|-2-| 
E|-3-| 





Comments


Popular A Silent Film tabs & chords
Driven By Their Beating Hearts Bass Tabs
Lamplight Bass Tabs
Thirteen Times The Strength Bass Tabs
Cuckoo Song Chords
Danny Dakota The Wishing Well Chords
Harbour Lights Chords
You Will Leave A Mark Tabs
You Will Leave A Mark 1 Tabs
Danny Dakota The Wishing Well Ukulele
You Will Leave A Mark Ukulele


Song lyrics



↑ Back to top | Tablatures and chords are parodies/interpretations of the original songs. You may use it for private study, scholarship, research or language learning purposes only
© 2014 AZChords.com Contact us | Privacy policy | DMCA | Add/correct tabs | Request tabs | Top 50 tabs