» » »

A Silent Film, Lamplight Bass tabs (ver.1)

Artists:  A B C D E F G H I J K L M N O P Q R S T U V W X Y Z # 

Lamplight Bass tabs (ver.1)

A Silent Film Tabs
Rating:
0/5 (0 votes)
Lamplight lessons Tabs too difficult? Try these video lessons and learn fast
                INTRO (0.02 - 0.23)
G|------------------------------------------------------------------------------|
D|------------------------------------------------------------------------------|
A|----------------------------------------3-5555555-55555555--33333333-33333333-|
E|-66666666-66666666-5-33333333-33333333----------------------------------------|

G|------------------------------------------------------------------------------|
D|------------------------------------------------------------------------------|
A|---------------------------------------3-55555555-55555555--------------------|
E|-33333333-33333333-5-6666666-66666666-----------------------33333333-33333333-|


VERSE (x2)
G|---------------------------------------------------------|
D|---------------------------------------------------------|
A|------------------------1----------------------------3---|
E|-3-1-3---3-1-33-1-3-1-3---3---3-1-3---3-1-33-1-3-1-3---3-|

Then (x4)
G|-----------------------------------------------|
D|-----------------------------------------------|
A|-------------------1-----------------------3---|
E|-3-1-3-33-1--3-1-3---3---3-1-3-33-1--3-1-3---3-|


CHORUS 1 (1.06 - 1.27)
G|-----------------------------------------------------------------------------|
D|-----------------------------------------------------------------------------|
A|---------------------------------------3-5555555-55555555--33333333-33333333-|
E|-66666666-66666666--33333333-33333333----------------------------------------|

G|-------------------------------------------------------------------------------|
D|-------------------------------------------------------------------------------|
A|----------------------------------------3-55555555-55555555--------------------|
E|-33333333-33333333--5-6666666-66666666-----------------------33333333-33333333-|


CHORUS 2 (2.10 - 2.51)
G|------------------------------------------------------------------------------|
D|------------------------------------------------------------------------------|
A|----------------------------------------3-5555555-55555555--33333333-33333333-|
E|-66666666-66666666-5-33333333-33333333----------------------------------------|

G|------------------------------------------------------------------------------|
D|---------------------------------------------------------------------55555555-|
A|---------------------------------------3-55555555-55555555--------------------|
E|-33333333-33333333-5-6666666-66666666-----------------------33333333----------|

G|------------------------------------------------------------------------------|
D|------------------------------------------------------------------------------|
A|----------------------------------------3-5555555-55555555--33333333-33333333-|
E|-66666666-66666666-5-33333333-33333333----------------------------------------|

G|---------------------------------------------------------------|
D|---------------------------------------------------------------|
A|---------------------------------------3-55555555-55555555-----|
E|-33333333-33333333-5-6666666-66666666-----------------------3~~|



CHORUS 3 (3.15 - 3.44)
G|------------------------------------------------------------------------------|
D|------------------------------------------------------------------------------|
A|----------------------------------------3-5555555-55555555--33333333-33333333-|
E|-66666666-66666666-5-33333333-33333333----------------------------------------|

G|------------------------------------------------------------------------------|
D|---------------------------------------------------------------------55555555-|
A|---------------------------------------3-55555555-55555555--------------------|
E|-33333333-33333333-5-6666666-66666666-----------------------33333333----------|

G|--------------------------------------------------------------|
D|--------------------------------------------------------------|
A|---------------------------------------3-5555555-55555555--3~~|
E|-66666666-66666666--33333333-33333333-------------------------|
            
Submit corrections

comments powered by Disqus
↑ Back to top | A Silent Film Bass for Lamplight. Lyrics for acoustic guitar and electric guitar. Tablatures and chords are parodies/interpretations of the original songs. You may use it for private study, scholarship, research or language learning purposes only